3 Doors Down

3 Doors Down - Be Like That Ver 6 guitar tab

Your rating:
3 Doors Down - Be Like That

Verse
    G                 Dsus2   			    Em9
E ----------3------------------0-----------------------0------
B ------------3----------3--------3-----------------3-----3---
G ----0---------0-----------2--------2----------------------0-
D -------0---------0--0-----------------0--------2------------
A --------------------------------------------2---------------
E -3---------------------------------------0------------------

   C6/9
E -------------0------
B ----------3-----3---
G -------0----------0-
D ----2---------------
A -3------------------
E --------------------
play that 3 times then Eltc comes in with PwrChords strummed once
G5	D5	E5	C5

He spent his whole life being too young
To live the life thats in his dreams
At night he lies awake and he wonders,
Why can�t that be me
Cause in his life he is filled with all these good intentions
He�s left a lot of things he�d rather not
Mention right now
But just before he says goodnight, he looks
Up with a little smile at me and he says


	G 		   Dsus2 	      Em9
Chorus:	If I could be like that, I would give anything
			 C6/9
	Just to live one day, in those shoes
	G		   Dsus2	      Em9
	If I could be like that, what would I do,
		   C6/9
	What would I do

 A5   C5   G5   G5
 A5       C5       G5    B5 C5
 Now and dreams we run




Leave this space for printing in notepad




She spends her days up in the north park,
Watching the people as they pass
And all she wants is just a little piece of
This dream, is that too much to ask
With a safe home, and a warm bed, on a
quiet little street
All she wants is just that something to
Hold onto, that�s all she needs

Chorus

A5	  C5	  G5
Yeah yeah yeah ho ooh yeah
    G5		 A5	  C5
I�m falling into this, in dreams
   G5	   B5 C5
We run away

Chorus X 2 picking  - first then chords

A5	C5		G5
	     Falling in
G5			    A5	   C5	   G5  G5
Get this song at:
bol.com
amazon.com

Copyrights:

Author: ?

Composer: ?

Publisher: ?

Details:

Language: English

Share your thoughts

This form is protected by reCAPTCHA and the Google Privacy Policy and Terms of Service apply.

0 Comments found