The Get Up Kids
C (Guitar tab)

THE GET UP KIDS
SOMETHING TO WRITE HOME ABOUT/EUDORA
C.S.T
Tabbed by al@onedollarshort.zzn.com

NORMAL TUNING

INTRO/VERSE[and BREAK]

GUITAR 1
|---------------------------------------------------------------------------------|
|--3-3-3-3-3-3-3-3-3-3-3-3-3-3-3-3-3-3-3-3-4-4-4-4-4-4-4-4-4-3-3-3-3-3-3-3-3-3-3--|
|--0-0-0-0-0-0-0-0-0-0-0-0-0-0-0-0-0-0-0-0-4-4-4-4-4-4-4-4-4-0-0-0-0-0-0-0-0-0-0--|
|--2-2-2-2-2-2-2-2-2-2-2-2-2-2-2-2-2-2-2-2-4-4-4-4-4-4-4-4-4-2-2-2-2-2-2-2-2-2-2--|
|--3-3-3-3-3-3-3-3-3-3-2-2-2-2-2-2-2-2-2-2-2-2-2-2-2-2-2-2-2-3-3-3-3-3-3-3-3-3-3--|
|----------------------0-0-0-0-0-0-0-0-0-0----------------------------------------|x

GUITAR 2 |play this bit in the break(no singing)|
||--------|---------|--------|---------||--7-5---------------------------------|
||--3/12--|--12/15--|--15\7--|--8-7----||------8-7-8---------------------------|
||--------|---------|--------|------7--||-------------7------------------------|
||--------|---------|--------|---------||--------------------------------------|
||--------|---------|--------|---------||--------------------------------------|
||--------|---------|--------|---------||----------------[x4]------------------|
|____REPEAT THIS BIT AFTER THE BREAK____|

VERSE 2

GUITAR 1 [a little different]
|----------------------------------------------------------------------------------------------
|--3-3-3-3-3-3-3-3-3-3-3-3-3-3-3-3-3-3-3-3-4-4-4-4-4-4-4-4-4-3-3-3-3-3-3-3-3-3-3-3-3-3-3-3-3-3-
|--0-0-0-0-0-0-0-0-0-0-0-0-0-0-0-0-0-0-0-0-4-4-4-4-4-4-4-4-4-0-0-0-0-0-0-0-0-0-0-0-0-0-0-0-0-0-
|--2-2-2-2-2-2-2-2-2-2-2-2-2-2-2-2-2-2-2-2-4-4-4-4-4-4-4-4-4-2-2-2-2-2-2-2-2-2-2-2-2-2-2-2-2-2-
|--3-3-3-3-3-3-3-3-3-3-2-2-2-2-2-2-2-2-2-2-2-2-2-2-2-2-2-2-2-3-3-3-3-3-3-3-3-3-3-3-3-3-3-3-3-3-
|----------------------0-0-0-0-0-0-0-0-0-0-----------------------------------------------------

-----------------------------------------------------------------------|
--3-3-3-3-3-3-3-3-3-3-3-3-3--------------------------------------------|
--0-0-0-0-0-0-0-0-0-0-0-0-0-4-4-4-4-4-------------5-5-5-5-5-5-5-5-5-5--|
--2-2-2-2-2-2-2-2-2-2-2-2-2-4-4-4-4-4-5-5-5-5-5-5-5-5-5-5-5-5-5-5-5-5--|
--3-3-3-2-2-2-2-2-2-2-2-2-2-2-2-2-2-2-5-5-5-5-5-5-3-3-3-3-3-3-3-3-3-3--|
----------0-0-0-0-0-0-0-0-0-----------3-3-3-3-3-3----------------------|

GUITAR 2's LEAD IS PRETTY MUCH THE SAME

CHORUS [BOTH GUITARS] ("....its every song....")
|---------------------------------------------------------------------|
|---------------------------------------------------------------------|
|--9-9-9-9-9-4-4-4-4-4-55-5--77-7--99-9-------5-5-5-5-5-5-5-5-5-5/7~--|
|--9-9-9-9-9-4-4-4-4-4-55-5--77-7--99-9--55-5-5-5-5-5-5-5-5-5-5-5/7~--|
|--7-7-7-7-7-2-2-2-2-2-33-3--55-5--77-7--55-5-3-3-3-3-3-3-3-3-3-3/5~--|
|----------------------------------------33-3-------------------------|x1

VERSE 3 - is pretty much the same as VERSE 2.

BRIDGE ("....will this come between us....")
|---------------------------------------------------------------------------------------------|
|---------------------------------------------------------------------------------------------|
|--9-9-9-9-9-9-9-9-9-9-9-77-5-5-5-5-5-5-5-5-5-5-5-5-5-5-5-5-5-5-5-5-5-----------4-4-4-4-4/----|
|--9-9-9-9-9-9-9-9-9-9-9-77-5-5-5-5-5-5-5-5-5-5-5-5-5-5-5-5-5-5-5-5-5-5-5-5-5-5-4-4-4-4-4/----|
|--7-7-7-7-7-7-7-7-7-7-7-55-3-3-3-3-3-3-3-3-3-3-2-2-3-3-3-3-3-3-3-3-3-5-5-5-5-5-2-2-2-2-2/----|
|---------------------------------------------------------------------3-3-3-3-3-----------x2--|

--|---------------------------------------------|
--|---------------------------------------------|
--|--5-5-5-5-5-----------5-5-5-5-5-7-7-7-7-12\--|
--|--5-5-5-5-5-5-5-5-5-5-5-5-5-5-5-7-7-7-7--X---|
--|--3-3-3-3-3-5-5-5-5-5-3-3-3-3-3-5-5-5-5-10\--|
--|------------3-3-3-3-3------------------------|

BASS GUITAR THEN PLAYS BY ITSELF

GUITAR 1 ***THIS BIT GOES INTO CHORUS 3 LIKE BEFORE***
|-----------------------------------------------------------------------------------------------|
|-----------4--------5--------7-----------------------------------------------------------------|
|--4--------4--------5--------7---8-8-8-8-8-----------5-5-5-5-5-7-7-7-7-7-9-9-9-9-9-9-9-9-9-9*--|
|--5--------4--------5--------7---8-8-6-6-6-5-5-5-5-5-5-5-5-5-5-7-7-7-7-7-9-9-9-9-9-9-9-9-9-9*--|
|--5--------2--------3--------5---6-6-6-6-6-5-5-5-5-5-3-3-3-3-3-5-5-5-5-5-7-7-7-7-7-7-7-7-7-7*--|
|--3----------------------------------------3-3-3-3-3-------------------------------------------|

GUITAR 2
|-------3-5-7------3-5-3---3-5-7----3-5-3------3-5-8-7------------------------------|
|-----3----------3--------3--------3---------3--------------------------------------|
|---4--------------------5--------2--------4----------------------------------------|
|--5-----------4---------------------------------------[GO SILENT TILL PICK SLIDE]--|
|-----------------------------------------------------------------------------------|
|-----------------------------------------------------------------------------------|

CHORUS 3 [BOTH GUITARS]
|-----------------------------------|---------------------------------------------------------------|
|-----------------------------------|---------------------------------------------------------------|
|--4-4-4-4-4-4-4-4------------------|--55-5--77-7--99-9-------5-5-5-5-5-5-5-5-7-7-7-7-7-7-7-7-------|
|--4-4-4-4-4-4-4-4-5-5-5-5-5-5-5-5--|--55-5--77-7--99-9--55-5-5-5-5-5-5-5-5-5-7-7-7-7-7-7-7-7-------|
|--2-2-2-2-2-2-2-2-5-5-5-5-5-5-5-5--|--33-3--55-5--77-7--55-5-3-3-3-3-3-3-3-3-5-5-5-5-5-5-5-5-------|
|------------------3-3-3-3-3-3-3-3--|--------------------33-3---------------------------------[x2]--|

after repeatin this bar play the C5 and D5 on the end again, and finsih on the G5.

Copyrights

Author: ?
Composer: ?
Publisher: ?

More details

Language: English

www.muzikum.eu