Slayer
Threshold (Guitar tab)

SLAYER

threshold


God Hates Us All


Tabbed by Rudy Guzman


guzman_84@hotmail.com


3 steps down

repeat
Eb|--------------------------------------|
Bb|--------------------------------------|
F#|--------------------------------------|
C#|--------------------------------------|
G#|--------------------------------------|
C#|-3-2-0-1-0--2-1-0--2-1-0-1-0--1-3-0---|

repeat
Eb|------------------------------------|
Bb|------------------------------------|
F#|------------------------------------|
C#|------------------------------------|
G#|-5-4---3---4-3---4-3----5-5---------|
C#|-3-2-0-1-0-2-1-0-2-1-0--3-3---------|


verse
Eb|---------------------------------------------------------------|
Bb|---------------------------------------------------------------|
F#|---------------------------------------------------------------|
C#|---------------------------------------------------------------|
G#|---------------------------------------------------------------|
C#|-2-1-0-1-0--2-1-0--2-1-0--1-0-1-2-1-0--2-1-0--2-1-0h1p0--1p0h1-|


repeat
Eb|---------------------|
Bb|---------------------|
F#|---------------------|
C#|---------------------|
G#|-----3-----3-----3---|
C#|-0-0-1-0-0-1-0-0-1-1-|


bar bar
Eb|--------5NH----------|
Bb|--5NH----------------|
F#|---------------------|
C#|---------------------|
G#|---------------------|
C#|---------------------|


cant stop the violence
Eb|-----------------------|
Bb|-----------------------|
F#|-----------------------|
C#|-----------------------|
G#|-2-------3-2-----3-(3)-|
C#|-0-0-0-0-1-0-0-0-1-(1)-|


repeat 2 times
Eb|--------------------------------------|
Bb|--------------------------------------|
F#|--------------------------------------|
C#|--------------------------------------|
G#|--------------------------------------|
C#|-3-2-0-1-0--2-1-0--2-1-0-1-0--1-3-0---|



verse repeat
Eb|---------------------------------------------------------------|
Bb|---------------------------------------------------------------|
F#|---------------------------------------------------------------|
C#|---------------------------------------------------------------|
G#|---------------------------------------------------------------|
C#|-2-1-0-1-0--2-1-0--2-1-0--1-0-1-2-1-0--2-1-0--2-1-0h1p0--1p0h1-|


loose your ***ing mind
Eb|------------------------------------|
Bb|------------------------------------|
F#|------------------------------------|
C#|------------------------------------|
G#|-5-4---3---4-3---4-3----5-5---------|
C#|-3-2-0-1-0-2-1-0-2-1-0--3-3---------|



Eb|---------------------|
Bb|---------------------|
F#|---------------------|
C#|---------------------|
G#|-----3-----3-----3---|
C#|-0-0-1-0-0-1-0-0-1-1-|


bar
Eb|------------------|
Bb|------------------|
F#|----5NH-----------|
C#|------------------|
G#|------------------|
C#|------------------|


cant stop the violence i love it...
Eb|-----------------------|
Bb|-----------------------|
F#|-----------------------|
C#|-----------------------|
G#|-2-------3-2-----3-(3)-|
C#|-0-0-0-0-1-0-0-0-1-(1)-|



Eb|------------------------------------|
Bb|------------------------------------|
F#|------------------------------------|
C#|------------------------------------|
G#|-5-4---3---4-3---4-3----5-5---------|
C#|-3-2-0-1-0-2-1-0-2-1-0--3-3---------|

sorry for not putting any lyrics to the tab but i dont think u kant loose
track when u follow it, the only thing i would advice is that make sure the
time the riff are repeated while u r listening the song

Copyrights

Author: ?
Composer: ?
Publisher: American Recordings, LLC

More details

Published in: 2010
Language: English
Available on: God Hates Us All (2001)

www.muzikum.eu