John Lee Hooker
C Blues (Guitar tab)

Artist: John Lee Hooker
Song: c blues
this song doesnt really have a name and is just an example good blues riffs

X3
E----------------------------------------------------------------------------------|
B----------------------------------------------------------10-12-10-8--------------|
G------------10-9-10-------------7-6-7------------10-9-10--10-12-10-8h9------------|
D---8-10-8---9--8-9------8-10-8--8-7-8----8-10-8--9--8-9----------------10-8-------|
A-10---------10-9-10---10--------9-8-9--10--------10-9-10--------------------10-8--|
E----------------------------------------------------------------------------------|


E----------------------------------------------8-8-8-8-8-8-8-8-8-8---------|
B--------------------10-12-10-8--------------------------------------------|
G-----------10-9-10--10-12-10-8h9--------------8-8-8-7-7-7-6-6-6-5---------|
D---8-10-8--9--8-9----------------10-8-------8-----------------------------|
A-10--------10-9-10--------------------10-8---------------------------8----|
E-------------------------------------------------------------------10-10--|

Copyrights

Author: ?
Composer: ?
Publisher: ?

More details

Language: English

www.muzikum.eu