Black Sabbath
Wheels Of Confusion Ver 2 (Bass tab)

from - KtuluKid@aol.com

Wheels of Confusion - Bass
Black Sabbath - Vol.4

tune down 1 1/2 steps low to high(C# F# B E)
Intro
||----------------------------------------------------------
||----------------8h10-----8h10-8h10------------------------
||--10----10-8---------8-------------6--8--10----10-12-13-8-
||----------------------------------------------------------
Long ago I wandered through my
-------------------------||---------------------------------
---8h10-----8h10-8h10----||---------------------------------
--------8-------------6--||-5--5-5---5--5-5------3---3-5--5-
-------------------------||------------------3h5---5--------
mind...
------3h5--3---3h5-3--------||------------------------------
------------5--------7-5-3--||-------------5----------------
-5--5-----------------------||-5-3---7-3-----7-3-7-3---3---3
----------------------------||-----5-----5-----------5---5--

-||-----5-----4------3-3--3-3-----5-----4-----3-3--3-3-||---
-||---5-----4------3------------5-----4-----3----------||-5h
-||-3-----2-----1-------------3-----2-----1------------||---
-||----------------------------------------------------||---
Lost int he wheels of confusion...
----------------------------------------------------------||
7-5h7-5h7-5h7-5h7-5h7-5h7-5h7-5h7-5h7-5h7-5h7-5h7-5h7-5h7-||
----------------------------------------------------------||
----------------------------------------------------------||
Outro
------------------------------------------------------------
-3-5-5-5-5-3-5-5-5-5-1-3-3-3-3-3-5-5-5-5-3-5-5-5-5-1-3-3-3-3
------------------------------------------------------------
------------------------------------------------------------
continue and fade out
-----------------------------------------------------||
-3-5-5-5-5-3-5-5-5-5-1-3-3-3-3-3-5-5-5-5-------------||
-----------------------------------------------------||
-----------------------------------------------------||

Copyrights

Author: ?
Composer: ?
Publisher: ?

More details

Language: English

www.muzikum.eu