Black Sabbath
Nib Ver 3 (Bass tab)

Song:NIB (bass solo)
Artist: Black Sabbath
Album: Black Sabbath
Tab:Grant Anderson (crazypumpkin35@hotmail.com)

I decided to create this 'cos i've never seen a good one done before.
it's been done by me and trusty my ear so if it's a bit dodgey then please
let me know! it might not be perfect but im sure it's pretty *** close!
Have fun!

G||------------------------|-----------------------|------------------------|
D||-------------5b------5--|--7----7b---7--5-------|--------5b------5--7----|
A||--7----5----------7-----|------------------7----|--5----------7----------|
E||----------7-------------|-----------------------|-----7------------------|



-----7--9----9--7--9b----|--9--7------------------|------------------------|
--9----------------------|--------9--7--9----5b---|-----5--7----7--7--5b---|
-------------------------|------------------------|--7---------------------|
-------------------------|------------------------|------------------------|



------------------------|------------------------|------------------------|
------------------------|----------------5-------|--5--7--7b---7--5-------|
--7--5------------------|--------5----7-----7----|-------------------7----|
--------7--0--2b---0----|--5--7------------------|------------------------|



--------7--9--9----7-----|------------------------|------------------------|
--5--7----------------9--|--7--9--5b--------------|--------------5----7b---|
-------------------------|-------------7--5-------|--------5--7------------|
-------------------------|-------------------7----|--5--7------------------|



------------------------|----------------------|------------------------|
--7--5-------5b---------|----------------------|--------------5b--------|
--------7---------7--5--|----------------------|--------5--7-------7----|
------------------------|--7--0--2b---0--------|--5--7------------------|



-----------------------|----------------------|-----------------------|
--------------------5--|--7----7b---7----5----|------------5-----5----|
------5-----5----7-----|----------------------|------5--7-----7-------|
---------7-------------|----------------------|-----------------------|



-----------------------|-------------------------|-----------------------|
--7----7b-7--5---------|--------------------5b---|--7----8b-7--5---------|
------------------7----|--5-----------5--7-------|------------------7----|
-----------------------|-----7--5--7-------------|-----------------------|



-----7--9--9--7-----------|-----------------------|-----------------------|
--9--------------9--7--9--|--5b--------------5b---|-----------------------|
--------------------------|-------7--5------------|--7--5------------7----|
--------------------------|-------------7---------|--------7----2b--------|



------------------------|------------------------|------------------------|
--------------5b--------|------------------------|--------5h-7--5---------|
--------5--7-------7----|------5h-7--5h-7--5h-7--|--5h-7-------------7----|
--5--7------------------|------------------------|------------------------|



----------------------|----------------------|------------------------|
----------------------|--5----7b---7----5----|------------------------|
------5-----5----7----|----------------------|------5h-7--5h-7--5h-7--|
---------7------------|----------------------|------------------------|



------------------------|------------------||
------------------------|------------------||
--5--7--5-----5----7----|------------------||
-----------7------------|------------------||



Use a wah pedal! that's what your meant to use (believe me it sounds better)!!!

Copyrights

Author: ?
Composer: ?
Publisher: ?

More details

Language: English

www.muzikum.eu