Blind Melon
No Rains (Bass tab)

Song:No rain
Group:Blind melon

A very easy song, just listen the times
(Una cancion muy facil, escuchen los tiempos para agarrarle la onda)

Intro
|-----|----------|----------|
|-----|---------|-----------|
|------|-7r-------|---------|x2
|-----|----------|----------|


coros
|----9--------------------------------||-9-7-------|---------|
|-------6h7-6h7------5-----------------||-----9-7-5-|---------|
|-7---------------7-------0h4--5--7----||-----------|-7-------|
|----------------------------------------||-----------|---------|

Parte calmada
|----------7---------|
|---------------------|
|-7---5----------------|
|--------------5-------|



Parte final
|---6h7-------|
|-7-------5----|

Mas info.: revival_18@hotmail.com

SOC. BARRACUDA

Copyrights

Author: ?
Composer: ?
Publisher: ?

More details

Language: English

www.muzikum.eu