U2
With Or Without You (Guitar tab)

#
From: Scott A. Yanoff


U2 "With or Without You"

Same four chords repeat throughout song:

D D/A Bm7 G/D

D x x 0 2 3 2
D/A x x 4 2 3 0
Bm7 x x 0 4 3 2
G/D x x 0 0 3 3

TAB (Guitar parts during chorus):
|---10---10-10---10--------------------|
|-8----8-------8----7------------------|
|---------------------------0-0-0------|
|---------------------0-0-0------------|
|--------------------------------------|
|--------------------------------------|

Solos at end are formation of D chords:
-2-0-0-2-3----------------
-3-3-3-3-3----------------
-2-2-0-2-2----------------
--------------------------
--------------------------
--------------------------
note that for each chord formation above, each repeats several times, and
the entire chord sequence of the 5 chord formation above repeats also.

Copyrights

Author: ?
Composer: ?
Publisher: ?

More details

Language: English

www.muzikum.eu