Bif Naked
October Song (Guitar tab)

Song: October Song
Artist: Bif Naked
Album: Purge
Tabs by: Kanjiono22


Intro
Verse
E|7-7-7--3-3-3--5--0--7--3-5----|>
a|----9------5--7--2--9--5-7----|>
d|----9------5--7--2--9--5-7----|>
g|------------------------------|>
b|------------------------------|>
e|------------------------------|>
(Play above during verses:)
V1
If I fall I am honest, will you pick me up wll you help me fly
If I fall i am honest, will you shoe me love
If im in over my head, will pick me up will you help me out
If im in over my head, will you show me love
Its cold baby, its cold baby, i need your love
to get me through this time


E|--5--7--3------5---3--
a|--7--9--5---5--7---5--
d|--7--9--5---7--7---5--
g|------------7---------
b|----------------------
e|----------------------
(play above DURING this)
Lonley october song, i am a bleeding heart
Lonley october song, helpme im falling apart

E|--7--3------5---|-7--3----5--7--3--5----5-3--
a|--9--5---5--7---|-9--5--5-7--9--5--7--5-7-5--
d|--9--5---7--7---|-9--5--7-7--9--5--7--7-7-5--
g|---------7------|-------7-------------7------
b|----------------|----------------------------
e|----------------|----------------------------
(play during chorus)
I can't seem to find anyone
Who hasnt fallen fallen down
I can't seem to find anyone I like
E|----5--3----5---
a|-5--7--5--5-7---
d|-7--7--5--7-7---
g|-7--------7-----
b|----------------
e|----------------
A crispy leaf on the ground,there are leaves all around

(p[lay verse agian)
If Im blind and its my way, will you walk with me, will you help me see
If Im blind and its my way, will you show me love
Ifim incarcerated will you bust me out, will you set me free
If im incarcerated, will you show me love
Its cold Baby, Its cold Baby
I need your love to get me through this time

Lonley october song i am a bleeding heart
Lonley october song, help me im falling apart

(chorus)


This is the bridge part or what not.
E|-8---4----6---
a|-10--6--6-8---
d|-10--6--8-8---
g|--------8-----
b|--------------
e|--------------
If I fall and im honest,
and if im in over my head,
If Im blind and its my way
If Im incarerated

If I fall and im honest
If im in over my head
if in blind and its my way
if im incarcertated

Chorus

-Enjoy :)

Any suggestions, Death threats, notes of gratitude..
juss send em here: klpike@mail.com

Copyrights

Author: ?
Composer: ?
Publisher: ?

More details

Language: English

www.muzikum.eu