Blink 182
M And M S (Guitar tab)

Band: blink 182
Song: M&M's
Album: Cheshire Cat

Intro:
E:-0-4-0-5-0-7-5-4-5-0-2-0-4-0-2-4-2-0--
B:--------------------------------------
G:--------------------------------------
D:--------------------------------------
A:--------------------------------------
E:--------------------------------------

Verse:(use these power chords,they are in order)
E:--------------------
B:--------------------
G:-9------------------
D:-9----9----11---7---
A:-7----9----11---7---
E:------7----9----5---
Eii B5 C#5 A5

Riff before chorus:
E:--------------------
B:--------------------
G:--9-----------------
D:--9-----------------
A:--7----9-7-9-7-6-7--
E:--------------------

Chorus:(Once again, the chords are in order)
E:-------------------
B:-------------------
G:----------------4--
D:-4----7----2----4--
A:-4----7----2----2--
E:-2----5----0-------
F# A5 Em B5

Outro: repeat the intro

Copyrights

Author: ?
Composer: ?
Publisher: ?

More details

Language: English

www.muzikum.eu