Blink 182
M And Ms (Guitar tab)

Date: Sun, 25 Jun 2000 20:07:39 -0400
From: "David Gens"
Subject: b/blink_182/m_and_ms.tab

============================================================
Title : M&M's
Artist : Blink 182
Album : Cheshire Cat
Transcribed by : Dave (davidgens@hotmail.com)
Figured out by : Mike (mikeagranovi@hotmail.com)
============================================================

Legend
------

p = pull-off



Main Riff

E|-0-4p0-5p0-7-5-4-5p4p2p0-2p0-4p0-5-4-2-0--
B|------------------------------------------
G|------------------------------------------
D|------------------------------------------
A|------------------------------------------
E|------------------------------------------



Verses

E|---0---0---0---0---0---0---0---0---0---0---0---0---0---0---0---0-
B|-----------------------------------------------------------------
G|---------------------------------1---1---1---1---2---2---2---2---
D|-2---2---2---2---4---4---4---4-----------------------------------
A|-----------------------------------------------------------------
E|-----------------------------------------------------------------



Verses #2

E|---------------------------
B|-5-5-5-5----------------5--
G|-4-4-4-4----------------4--
D|-2-2-2-2--4b5-2-4b5-2-1-2--
A|---------------------------
E|---------------------------



Chorus

E|---------------------------------------
B|---------------------------------------
G|-----------2-2-2-2-2---------4-4-4-4-4-
D|-----4-4-4-2-2-2-2-2-2-2-2-2-4-4-4-4-4-
A|-----4-4-4-0-0-0-0-0-2-2-2-2-2-2-2-2-2-
E|-----2-2-2-----------0-0-0-0-----------



Bridge #1

E|----------
B|----------
G|---4-6----
D|-2-4-6-7--
A|-2-2-4-7--
E|-0-----5--



Bridge #2 (Just keep playing E for a long time)

E|------------------------
B|-5-5-5-5-5-5-5-5-5-5-5--
G|-4-4-4-4-4-4-4-4-4-4-4--
D|-2-2-2-2-2-2-2-2-2-2-2--
A|------------------------
E|------------------------

Order
-----

Main Riff 4x
Verses 2x
Verses #2 2x
Chorus 4x
Main Riff 4x
Verses 2x
Verses #2 2x
Chorus 4x
Bridge #1 2x
Bridge #2 2x
Main Riff 8x


________________________________________________________________________

Copyrights

Author: ?
Composer: ?
Publisher: ?

More details

Language: English

www.muzikum.eu