American Hi-fi
Flavor Of The Week Ver 2 (Guitar tab)

Author/Artist: American Hi-fi
Title: Flavor of the Week
Transcribed by: Hunter
Email: gabol2001@yahoo.com

This is a kickass song
Its in drop D I know the first part of the solo but that part where he goes
2 notes at a time is a bit confusing hopefully someone else will get it right
------------------------------------------------------------------------------
------------------------------------------------------------------------------
------------------------------------------------------------------------------
-3/5-5-55-55-11110------------------------------------------------------------
-3/5-5-55-55-11110------------------------------------------------------------
-3/5-5-55-55-11110------------------------------------------------------------
Intro 4x

------------------------------------------------------------------------------
------------------------------------------------------------------------------
-3---3********----------------------------8***********------------------------
-3---3********-3***********-5************-8***********------------------------
-1---1********-3***********-5************-6***********------------------------
---------------3***********-5************-------------------------------------
Verse listen to figure pm *'s is the same chord i don't feel liken typen it

------------------------------------------------------------------------------
------------------------------------------------------------------------------
------------------5555555-88887777333335555555--------------------------------
-5-55--8-88-3-33--------------------------------------------------------------
-5-55--8-88-3-33--3333333-66665555111113333333--------------------------------
-5-55--8-88-3-33--------------------------------------------------------------
and he's got posters on the wall...

------------------------------------------------------------------------------
------------------------------------------------------------------------------
-33-----555555-888888---------------------------------------------------------
-33--33-555555-888888---------------------------------------------------------
-11--33-333333-666666---------------------------------------------------------
-----33-----------------------------------------------------------------------
her boyfriend he don't know......

------------------------------------------------------------------------------
------------------------------------------------------------------------------
-5b7-3--5b7----7--7b10b7-5-3--------------------------------------------------
------3-----5-----------------------------------------------------------------
------------------------------------------------------------------------------
------------------------------------------------------------------------------
that neat little riff

-----------------|-------------------|----------------------------------------
-----------------|-------------------|----------------------------------------
-5b7b5-3--5b7b5-3|5b7b-7b9-9b11-10b12|-10b12-12b14-13b15-15b17----------------
--------3--------|-------------------|----------------------------------------
-----------------|-------3x----------|----------------------------------------
-----------------|-------------------|----------------------------------------
Solo Time!!! it's not that bad it just sounds cool

-13---------------------------------------------------------------------------
----16b18---------------------------------------------------------------------
------------------------------------------------------------------------------
------------------------------------------------------------------------------
------------------------------------------------------------------------------
------------------------------------------------------------------------------
play this part 3x

-13---------------------------------------------------------------------------
----16b1816-14----------------------------------------------------------------
------------------------------------------------------------------------------
------------------------------------------------------------------------------
------------------------------------------------------------------------------
------------------------------------------------------------------------------
this is where it gets a bit tricky
i hope this is right
comments,add-ons,incomplete,errors?
Email me
TAKE CARE @--)---

Copyrights

Author: ?
Composer: ?
Publisher: ?

More details

Language: English

www.muzikum.eu