Bob Marley
Who The Cap Fit Ver 2 (Bass tab)

BOB MARLEY and THE WAILERS

WHO THE CAP FIT

album: RASTAMAN VIBRATION

INTRO
G ||-5-3-----3-----||
D ||-----3---------||
A ||---------------||
E ||---------------||

VERSE
G ||--3-5-3--------3--33--------3-4-5-------------3-5-5-------O3--O3--5-(3)--||
D ||-------------3------------------------------5----------------------------||
A ||---------------------------------3-3-------------------------------------||
E ||-------------------------------------------------------------------------||
leave out the note in brackets the third time.


"Some will eat and drink with you...."
G ||------3-------------------------5---------------||
D ||-1-1----1------------------3-3-----3------------||
A ||-----------1--------------------------3---------||
E ||------------------------------------------------||

CHORUS and "Throw me corn..."
G ||-----------------------------------------------||
D ||-5-5-----------5-5--------------5--------------||
A ||---------------------3-3---5--5----------------||
E ||-----------------------------------------------||
corrections and stuff to:
c.duffy@ireland.com

Copyrights

Author: ?
Composer: ?
Publisher: ?

More details

Language: English

www.muzikum.eu