James Bond
007 (Guitar tab)

This is 007's Theme song. Its very easy to pick,
have fun ;)

author = ElEcTrIfIeD
key = e
x = don't pick

e-x-x-x-x-x-x-x-x-x-x-x-x-
b-------1-1-1-2-2-2-1-1-1-
g-0-0-0-0-0-0-0-0-0-0-0-0-
d-2-2-2-2-2-2-2-2-2-2-2-2-
a-2-2-2-2-2-2-2-2-2-2-2-2-
e-------------------------

e-x-x-x-x-x-x-x-x-x-x-x-x-
b-------1-1-1-2-2-2-1-1-1-
g-0-0-0-0-0-0-0-0-0-0-0-0-
d-2-2-2-2-2-2-2-2-2-2-2-2-
a-2-2-2-2-2-2-2-2-2-2-2-2-
e-------------------------

Just keep on repeating it over and over it sounds awesome
with the distortion.

Copyrights

Author: ?
Composer: ?
Publisher: ?

More details

Language: English

www.muzikum.eu