Flem
Recognition (Guitar tab)

Standard Tuning.... This is a great and easy song.


Chorus & Beginning: Chorus -3x ; Beginning -2x

--7--7-x-x----x-x--7--7--x-x-7-7-x-x---x-x--5--5-----------
--7--7-x-x----x-x--7--7--x-x-7-7-x-x---x-x--5--5-----------
--7--7-x-x----x-x--9--9--x-x-7-7-x-x---x-x--5--5-----------
--9--9-x-x----x-x--9--9--x-x-9-9-x-x---x-x--7--7
--9--9-x-x----x-x--7--7--x-x-9-9-x-x---x-x--7--7-----------
--7--7-x-x----x-x--7--7--x-x-7-7-x-x---x-x--5--5-----------



Verse:

--7-7-7----5-5-5----7-7-7-7-7-x-x-x-x-x-x---------------------------------
--7-7-7----5-5-5----7-7-7-7-7-x-x-x-x-x-x---------------------------------
--7-7-7----5-5-5----7-7-7-7-7-x-x-x-x-x-x----------------------------------
--9-9-9----7-7-7----9-9-9-9-9-x-x-x-x-x-x----------------------------------
--9-9-9----7-7-7----9-9-9-9-9-x-x-x-x-x-x--------Repeat x10 --------------------------
--7-7-7----5-5-5----7-7-7-7-7-x-x-x-x-x-x----------------------------------


Chorus

Copyrights

Author: ?
Composer: ?
Publisher: ?

More details

Language: English

www.muzikum.eu