Team Sleep
Boulevard Nights (Guitar tab)

Team Sleep
Boulevard Nights

Tabbed by: Grant Foster 2003


This is a great song by Deftones front man Chino Moreno's side project Team Sleep. There debut CD is scheduled to release sometime in 2003. Enjoy Boulevard Nights, an easy all insturmental song...

(Play this intro on clean distorion)
D -----------------------------------------------------------------------------------
A -----------------------------------------------------------------------------------
F -----------------------------------------------------------------------------------
C 8-8-8-8-1010-8888------------------------------------------------------------------
A 8-8-8-8-8-8--8888--55555555--------------------------------------------------------
C 8-8-8-8------------77777777--------------------------------------------------------

(Heavy Distorion)
D -----------------------------------------------------------------------------------
A -----------------------------------------------------------------------------------
F ----------------------14-14-14-14-14-14-14-14--------------------------------------
C 8-8-8-8-1010-8888--0--XX-XX-XX-XX-XX-XX-XX-XX--------------------------------------
A 8-8-8-8-8-8--8888--0--12-12-12-12-12-12-12-12--------------------------------------
C 8-8-8-8------------0---------------------------------------------------------------


That's it for that song...if you have any questions or corrections please email me at grantfoster25@hotmail.com...

Thank You

Copyrights

Author: ?
Composer: ?
Publisher: Not On Label (Team Sleep Self-released)

More details

Published in: 2002
Language: English
Available on: Woodstock Sessions, Vol. 4 (2015)

www.muzikum.eu