Lessons
C Ionian Major (Bass tab)

-----------------------------------------------------------------
C Ionian Major
-----------------------------------------------------------------
Tabbed by: Alex
Email: laughing_hippie@yahoo.com

Tuning: Standard

G|-------------2-4-5-|
D|-------2-3-5-------|
A|--3-5--------------|
E|-------------------|

G|------2------------|
D|----2--------------|
A|--0----------------|
E|-------------------|

G|------0------------|
D|----2--------------|
A|--0----------------|
E|-------------------|

Copyrights

Author: ?
Composer: ?
Publisher: ?

More details

Language: English

www.muzikum.eu