Econoline Crush

Econoline Crush
Close (Bass tab)

Song Title: Close
Artist: Econoline Crush
----------------------------------------------

This is my interpretation of Econoline Crush's " Close."

Intro
A-7-8-0-5--0-3-2-5-2---------- (repeat till vocals come in)
E-----------------------------


Verse
A-0-0-----1-3-0---------------------
E-----1--3----------------------
(repeat)

Chorus
A-00000000----------77777777-88888-7-8-3--
E----------11111111-----------------------
(repeat)

Bridge
A-------------------5555555555555555-----------------
E-11111111-33333333----------------------------------
(repeat)

Ending
A-7-0-7-0-7-0-7-0----0-------------------
E------------------1---------------------

There shouldn't be any misakes, but if there are, please tell me, so I can fix
them. That's it, have fun with it.
PS: If you know any bass tabs to other canadian bands(I Mother Earth, Tea Party,
or even tabs for Face to Face, E-mail me, or put 'em up, Thanks.)

Submitted by: The Wolf (yu125676@yorku.ca)

OptimusPrime

Submitted by OptimusPrime at Sun 01 Dec, 2002 9:45 am

Author: ?
Composer: ?
Publisher: ?
Language: English

Reactions

CommonCrawl [Bot]

Follow Muzikum