Primus
D (Bass tab)

Artist: Primus
song: D.M.V.
album: pork Soda
bassist: Les Claypool

Les uses his six string bass son this song, I have the video it is awesome!!!!
The way to play the song is hamerons and tapping. If you don’t have a 6-string then
hamerons the 10th fret of your E string instead of 15 on the B string, at the end
where he does the tapping sliding variations, it sounds ok without using the C string,
I don’t have 6 string yet so that’s what I do

Intro

C|--------------------------------|--------------------------------|
G|--------19------18--18----------|--------19--------------1818--18|
D|--18------18--------------------|--18------18----18--18--1717--17|
A|----17------17------------------|----17------17------------------|
E|--------------------------------|------------------------1615----|
B|15----15------15----------------|15----15------15----------------|

C|--------------------------------|--------------------------------|
G|--------19------18--18----------|--------19----------------------|
D|--18------18--------------------|--18------18----18--18--18------|
A|----17------17------------------|----17------17------------------|
E|--------------------------------|--------------------------------|
B|15----15------15----------------|15----15------15--------15\-----|

C|--------------------------------|--------------------------------|
G|--------19------18--18------18--|--------19------18--18----------|
D|--18------18--------------------|--18------18--------------------|
A|----17------17------------------|----17------17------------------|
E|--------------------------------|--------------------------------|
B|3-----3-------3-----------------|3-----3-------3-----------------|

C|--------------------------------|--------------------------------|
G|--------19------18--18----18--18|--------19------18--------------|
D|--18------18--------------17--17|--18------18--------------------|
A|----17------17------------------|----17------17------------------|
E|----------------------------3---|--------------------------------|
B|3-----3-------3-----------------|3-----3-------3-----10/ 19\-----|

1st verse (Main thing, he does little variations you can figure out)
C|--------------------------------|--------------------------------|
G|--------19------18--18------18--|--------19------18--------------|
D|--18------18--------------------|--18------18--------------------|
A|----17------17------------------|----17------17------------------|
E|--------------------------------|--------------------------------|
B|15----15------15----------------|15----15------15----------------|

This is where he says “Pointless”
C|--------------------------------|--------------------------------|
G|--------18--18----------18--18--|--------18--18----------18--18--|
D|--------17--17----------17--17--|--------17--17----------17--17--|
A|--------10--10----------10--10\-|--------10--10----------10--10--|
E|--------------------------------|--------------------------------|
B|--------------------------------|--------------------------------|


C|--------------------------------|--------------------------------|
G|--------18--X-X-18--X-18--------|X-X-X-18--------X-X-X-18--------|
D|--------17--X-X-17--X-17--------|X-X-X-17--------X-X-X-17--------|
A|--------10--------------10--11\-|--------10--11\-----------------|
E|--------------------------------|--------------------------------|
B|--------------------------------|------------------------15\-----|

Play this 2 times before the second verse, then after he starts singing play it 5 times
C|--------------------------------|--------------------------------|
G|--------19------18--18----------|--------19------18--18----------|
D|--18------18--------------------|--18------18--------------------|
A|----17------17------------------|----17------17------------------|
E|--------------------------------|--------------------------------|
B|15----15------15----------------|15----15------15----------------|

“Pointless”
C|--------------------------------|--------------------------------|
G|--------18--18----------18--18--|--------18--18----------18--18--|
D|--------17--17----------17--17--|--------17--17----------17--17--|
A|--------10--10----------10--10\-|--------10--10----------10--10--|
E|--------------------------------|--------------------------------|
B|--------------------------------|--------------------------------|

C|--------------------------------|--------------------------------|
G|--------18--X-X-18--X-18--------|X-X-X-18--------X-X-X-18--------|
D|--------17--X-X-17--X-17--------|X-X-X-17--------X-X-X-17--------|
A|--------10--------------10--11\-|--------10--11\-----------------|
E|--------------------------------|--------------------------------|
B|--------------------------------|------------------------15\-----|

C|--------------------------------|--------------------------------|
G|--------18--18----------18--18--|--------18--18----------18--18--|

Copyrights
Author: ?
Composer: ?
Publisher: ?
More details
Language: English

Reactions

CommonCrawl [Bot]

Follow Muzikum