Trinity (BE)

Trinity (BE)
Repent (Guitar tab)

Repent: written and tabbed by Adam Mostyn. LimpBizkid922@excite.com



E[-----------------------------------------------
B[--------------------------------3-2-2----------
G[2-2-1-1-2-2-1-1-2-2-1-1-2-1-2-1-2-2-2---------- 2x intro
D[0-0-2-2-0-0-2-2-0-0-2-2-0-2-0-2-0-0-2----------
A[2-2-2-2-2-2-2-2-2-2-2-2-2-2-2-2----------------
E[-----------------------------------------------

E[3-3-----3-3-----3-3-----3-3------
B[0-0-2-3-0-0-3---0-0-2-3-0-0-3-2--
G[0-0-2-2-0-0-2-2-0-0-2-2-0-0-2-2-2 2x intro continued
D[0-0-----0-0---2-0-0-----0-0-----2
A[2-2-----2-2-----2-2-----2-2------
E[3-3-----3-3-----3-3-----3-3------

E[-------------------------------------------------2-4-0
G[--2-4---2-0---2-4---2-0--0-2---2-4---2-0---2-4--------
B[0-----0-----0-----0----2-----0-----0-----0-----0------ 2x
D[------------------------------------------------------
A[------------------------------------------------------
E[------------------------------------------------------

E[----2-2-----------
G[----3-3-----1-1---
B[2-2-2-2-----2-2--- 3x
D[2-2-----2-2-2-2---
A[2-2-----2-2-------
E[------------------

E[--------2-2-2-2----------------------1--------
G[--------3-3-3-3--------------1-------0--------
B[2-2-2-2-2-2-2-2--h1-1--2-2-2-2-2-2-2-2-2-2-2-- 1x
D[2-2-2-2---------2-2-2--2-2-2-2-2-2-2-2-2-2-2-2
A[2-2-2-2---------2-2-2------------------------2
E[----------------------------------------------

After this play the intro and intro continued parts one time.

OptimusPrime

Submitted by OptimusPrime at Thu 14 Aug, 2003 7:33 pm

Author: ?
Composer: ?
Publisher: ?
Language: English

Reactions

CommonCrawl [Bot]

Follow Muzikum