Warren Zevon

Warren Zevon
Searching For A Heart (Bass tab)

Intro:
G|---------------------------------------------|
D|---------------------------------------------|
A|-------0-00-0----------------0-00-0----------|
E|-0-00-0------3-33-3-33-0-00-0------3-33-3-33-|

Verse:
G|---------------------------------------|
D|-----------------------------0-00-0-00-|
A|-----0-00---------3-33-3-33-3----------|
E|-0-00----0-00-0-00---------------------|

Chorus:
G|-----------------------------------------------|
D|-----------------------------------------------|
A|-------3-33-3------------------0-00-0----------|
E|-0-00-0------3-33-3-33-3-0-00-0------3-33-3-33-|

Bridge:
G|--------------------------------------|
D|------------------------------0-00000-|
A|-3-3----3-33----3-33----0-00-0--------|
E|----3-33----3-33----3-33--------------|

OptimusPrime

Submitted by OptimusPrime at Thu 14 Aug, 2003 7:40 pm

Author: ?
Composer: ?
Publisher: ?
Language: English

Reactions

CommonCrawl [Bot]

Follow Muzikum