Warren Zevon

Warren Zevon
Model Citizen (Bass tab)

Verse:
G|-------------------------------------------------|
D|------------------2-0-------------------2-0------|
A|-3-0>>--00-0-00000---3-000000-0-00-00000---3-000-|
E|--3---------3---------------------3--------------|

Chorus:
G|------------------------------------------------|
D|------------5-3---------------------------------|
A|-33-3333-3-3---5------5-3-0------2-3-0---2-3-0--|
E|----------------33-333-----1-1111---3---------3-|

Bridge:
G|---------------------------------------------|
D|--------------32-----------------------------|
A|---------33333--3------------5-3-------------|
E|-11111111--------333333333333---5-3-11111111-|

OptimusPrime

Submitted by OptimusPrime at Thu 14 Aug, 2003 7:40 pm

Author: ?
Composer: ?
Publisher: ?
Language: English

Reactions

CommonCrawl [Bot]

Follow Muzikum