The Ventures
00-711 (Guitar tab)

Date: Sun, 24 Mar 2002 07:15:05 +0100 (CET)
From: =?iso-8859-1?q?Jan=20Bj=F6rklund?=
Subject: v/ventures/00-711.tab

ventures_00-711

Basstab by Jan Bjorklund, Finland

You are welcome to request for basstabs!
Fingering and positions as suggested by TablEdit,
please use common sense!

TablEdited by Jan Bjorklund
Tuning : E A D G Time Signature: 4/4

| | | | | | |
|
|----------------------------------|----------------------------------|
|----------------------------------|----------------------------------|
|----------------------------------|----------------------------------|
|-0-----------1---------------2----|-------------1--------------------|

| | | | | | |
|
|----------------------------------|----------------------------------|
|----------------------------------|----------------------------------|
|----------------------------------|----------------------------------|
|-0-----------1---------------2----|-------------1--------------------|

| | | | | | |
|
|----------------------------------|----------------------------------|
|----------------------------------|----------------------------------|
|-0--------------------------------|-0--------------------------------|
|-------------0---0---0------------|-------------0---0---0------------|

| | | | | | |
|
|----------------------------------|----------------------------------|
|----------------------------------|----------------------------------|
|-0--------------------------------|-0--------------------------------|
|-------------0---0---0------------|-------------0---0---0------------|

| | | | | | |
|
|----------------------------------|----------------------------------|
|----------------------------------|----------------------------------|
|-0--------------------------------|-0--------------------------------|
|-------------0---0---0------------|-------------0---0---0------------|

| | | | | | |
|
|----------------------------------|----------------------------------|
|----------------------------------|----------------------------------|
|-0--------------------------------|-0--------------------------------|
|-------------0---0---0------------|-------------0---0---0------------|

| | | | | | |
|
|----------------------------------|----------------------------------|
|-0--------------------------------|-0--------------------------------|
|-------------0---0---0------------|-------------0---0---0------------|
|----------------------------------|----------------------------------|

| | | | | | |
|
|----------------------------------|----------------------------------|
|-0--------------------------------|-0--------------------------------|
|-------------0---0---0------------|-------------0---0---0------------|
|----------------------------------|----------------------------------|

| | | | | | |
|
|----------------------------------|----------------------------------|
|----------------------------------|----------------------------------|
|-0--------------------------------|-0--------------------------------|
|-------------0---0---0------------|-------------0---0---0------------|

| | | | | | |
|
|----------------------------------|----------------------------------|
|----------------------------------|----------------------------------|
|-0--------------------------------|-0--------------------------------|
|-------------0---0---0------------|-------------0---0---0------------|

| | | | | | |
|
|----------------------------------|----------------------------------|
|----------------------------------|----------------------------------|
|----------------------------------|----------------------------------|
|-0-----------0---0-----------0----|-0-----------0---0-----------0----|

| | | | | | |
|
|----------------------------------|----------------------------------|
|----------------------------------|----------------------------------|
|-0-----------0---0-----------0----|-0-----------0---0-----------0----|
|----------------------------------|----------------------------------|

| | | | | | |
|
|----------------------------------|-0--------------------------------|
|-3--------------------------------|-----------------0----------------|
|-----------------3----------------|----------------------------------|
|----------------------------------|----------------------------------|

| | | | | | |
|
|----------------------------------|----------------------------------|
|-2--------------------------------|----------------------------------|
|-----------------2----------------|-----------------2----------------|
|----------------------------------|-0--------------------------------|

| | | | | | |
|
|----------------------------------|----------------------------------|
|----------------------------------|----------------------------------|
|----------------------------------|----------------------------------|
|----------------------------------|----------------------------------|

| | | | | | |
|
|----------------------------------|----------------------------------|
|----------------------------------|----------------------------------|
|----------------------------------|----------------------------------|
|-0-----------1---------------2----|-------------1--------------------|

| | | | | | |
|
|----------------------------------|----------------------------------|
|----------------------------------|----------------------------------|
|----------------------------------|----------------------------------|
|-0-----------1---------------2----|-------------1--------------------|

| | | | | | |
|
|----------------------------------|----------------------------------|
|----------------------------------|----------------------------------|
|-0--------------------------------|-0--------------------------------|
|-------------0---0---0------------|-------------0---0---0------------|

| | | | | | |
|
|----------------------------------|----------------------------------|
|----------------------------------|----------------------------------|
|-0--------------------------------|-0--------------------------------|
|-------------0---0---0------------|-------------0---0---0------------|

| | | | | | |
|
|----------------------------------|----------------------------------|
|----------------------------------|----------------------------------|
|-0--------------------------------|-0--------------------------------|
|-------------0---0---0------------|-------------0---0---0------------|

| | | | | | |
|
|----------------------------------|----------------------------------|
|----------------------------------|----------------------------------|
|-0--------------------------------|-0--------------------------------|
|-------------0---0---0------------|-------------0---0---0------------|

| | | | | | |
|
|----------------------------------|----------------------------------|
|-0--------------------------------|-0--------------------------------|
|-------------0---0---0------------|-------------0---0---0------------|
|----------------------------------|----------------------------------|

| | | | | | |
|
|----------------------------------|----------------------------------|
|-0--------------------------------|-0--------------------------------|
|-------------0---0---0------------|-------------0---0---0------------|
|----------------------------------|----------------------------------|

| | | | | | |
|
|----------------------------------|----------------------------------|
|----------------------------------|----------------------------------|
|-0--------------------------------|-0--------------------------------|
|-------------0---0---0------------|-------------0---0---0------------|

| | | | | | |
|
|----------------------------------|----------------------------------|
|----------------------------------|----------------------------------|
|-0--------------------------------|-0--------------------------------|
|-------------0---0---0------------|-------------0---0---0------------|

| | | | | | |
|
|----------------------------------|----------------------------------|
|----------------------------------|----------------------------------|
|----------------------------------|----------------------------------|
|-0---------------1-------0--------|-1---------------0----------------|

| | | | | | |
|
|----------------------------------|----------------------------------|
|----------------------------------|----------------------------------|
|-0--------------------------------|-0--------------------------------|
|-----------------0----------------|-----------------0----------------|

| | | | | | |
|
|----------------------------------|----------------------------------|
|-0-----------0--------------------|-0-----------0-----------0--------|
|-----------------0-----------0----|-----------------0---0------------|
|----------------------------------|----------------------------------|

| | | | | | |
|
|-2-----------2--------------------|-2-----------2-----------2--------|
|-----------------2-----------2----|-----------------2---2------------|
|----------------------------------|----------------------------------|
|----------------------------------|----------------------------------|

| | | | | | |
|
|----------------------------------|----------------------------------|
|-0-----------0--------------------|-0-----------0-----------0--------|
|-----------------0-----------0----|-----------------0---0------------|
|----------------------------------|----------------------------------|

| | | | | | |
|
|-2---------------0----------------|----------------------------------|
|----------------------------------|-3---------------2----------------|
|----------------------------------|----------------------------------|
|----------------------------------|----------------------------------|

| | | | | | |
|
|----------------------------------|----------------------------------|
|----------------------------------|----------------------------------|
|----------------------------------|----------------------------------|
|----------------------------------|----------------------------------|

| | | | | | |
|
|----------------------------------|----------------------------------|
|----------------------------------|----------------------------------|
|----------------------------------|----------------------------------|
|----------------------------------|-0-----------1---------------2----|

| | | | | | |
|
|----------------------------------|----------------------------------|
|----------------------------------|----------------------------------|
|----------------------------------|----------------------------------|
|-------------1--------------------|-0-----------1---------------2----|

| | | | | | |
|
|----------------------------------|----------------------------------|
|----------------------------------|----------------------------------|
|----------------------------------|-0--------------------------------|
|-------------1--------------------|-------------0---0---0------------|

| | | | | | |
|
|----------------------------------|----------------------------------|
|----------------------------------|----------------------------------|
|-0--------------------------------|-0--------------------------------|
|-------------0---0---0------------|-------------0---0---0------------|

| | | | | | |
|
|----------------------------------|----------------------------------|
|----------------------------------|----------------------------------|
|-0--------------------------------|-0--------------------------------|
|-------------0---0---0------------|-------------0---0---0------------|

| | | | | | |
|
|----------------------------------|----------------------------------|
|----------------------------------|----------------------------------|
|-0--------------------------------|-0--------------------------------|
|-------------0---0---0------------|-------------0---0---0------------|

| | | | | | |
|
|----------------------------------|----------------------------------|
|----------------------------------|-0--------------------------------|
|-0--------------------------------|-------------0---0---0------------|
|-------------0---0---0------------|----------------------------------|

| | | | | | |
|
|----------------------------------|----------------------------------|
|-0--------------------------------|-0--------------------------------|
|-------------0---0---0------------|-------------0---0---0------------|
|----------------------------------|----------------------------------|

| | | | | | |
|
|----------------------------------|----------------------------------|
|-0--------------------------------|----------------------------------|
|-------------0---0---0------------|-0--------------------------------|
|----------------------------------|-------------0---0---0------------|

| | | | | | |
|
|----------------------------------|----------------------------------|
|----------------------------------|----------------------------------|
|-0--------------------------------|-0--------------------------------|
|-------------0---0---0------------|-------------0---0---0------------|

| | | | | | |
|
|----------------------------------|----------------------------------|
|----------------------------------|----------------------------------|
|-0--------------------------------|----------------------------------|
|-------------0---0---0------------|-0-----------0---0-----------0----|

| | | | | | |
|
|----------------------------------|----------------------------------|
|----------------------------------|----------------------------------|
|----------------------------------|-0-----------0---0-----------0----|
|-0-----------0---0-----------0----|----------------------------------|

| | | | | | |
|
|----------------------------------|----------------------------------|
|----------------------------------|-3--------------------------------|
|-0-----------0---0-----------0----|-----------------3----------------|
|----------------------------------|----------------------------------|

| | | | | | |
|
|-0--------------------------------|----------------------------------|
|-----------------0----------------|-2--------------------------------|
|----------------------------------|-----------------2----------------|
|----------------------------------|----------------------------------|

| | | | | | |
|
|----------------------------------|----------------------------------|
|----------------------------------|----------------------------------|
|-----------------2----------------|----------------------------------|
|-0--------------------------------|-0-----------1---------------2----|

| | | | | | |
|
|----------------------------------|----------------------------------|
|----------------------------------|----------------------------------|
|----------------------------------|----------------------------------|
|-------------1--------------------|-0-----------1---------------2----|

| | | | | | |
|
|----------------------------------|----------------------------------|
|----------------------------------|----------------------------------|
|----------------------------------|----------------------------------|
|-------------1--------------------|-0-----------1---------------2----|

| | | |
|----------------------------------|
|----------------------------------|
|----------------------------------|
|-------------1--------------------|


Created with TablEdit http://www.tabledit.com/

Copyrights
Author: ?
Composer: ?
Publisher: ?
More details
Language: English

Reactions

CommonCrawl [Bot]

Follow Muzikum