Vangelis
Chariots Of Fire (Guitar tab)

This is the piano part for chariots of fire. This is very accurate,
but some variations occur. There are 3 main phrases that vary slightly
in parts of the song

part 1
e/-------------------------------------------------
b/----------9---11---9---------------------------------
g-------11------------------------------------------
d----11------------------11--------------------------
a--------------------------------------------------
e--------------------------------------------------

Part 2

e/-------------------------------------------------
b/-------------------------------------------
g-------11---10--------------------------------------
d----11----------11---11------------------------------
a--------------------------------------------------
e--------------------------------------------------

part 3

e/---9--8-----------8------------------------------
b/---------11---9-------11---9------------------------
g-------------------------------------------------
d------------------------------------------------
a--------------------------------------------------

Copyrights
Author: ?
Composer: ?
Publisher: ?

Reactions

3 posts

CommonCrawl [Bot]

guitbox Sun 23 May, 2004 7:14 pm

alright heres the whole tab

part 1
e-------------------------------------------------
b----------9---11---9-----------------9---11---9--
g-------11--------------10---------11-------------
d----11-------------------------11----------------
a-------------------------------------------------
e-------------------------------------------------

Part 2

e/------------------------------------------------
b/------------------------------------------------
g-------11---10-----------------------------------
d----11----------11---11--------------------------
a-------------------------------------------------
e-------------------------------------------------

Part 3

e---9--8-----------8------------------------------
b---------11---9-------9---11---7---9-------------
g-------------------------------------------------
d-------------------------------------------------
a-------------------------------------------------
e-------------------------------------------------

e---9--8-----------8--
b---------11---9------
g---------------------
d---------------------
a---------------------
e---------------------

guitbox Sun 23 May, 2004 7:09 pm

ok one more fix

e---9--8-----------8------------------------------
b---------11---9-------9---11---7---9-------------
g-------------------------------------------------
d-------------------------------------------------
a-------------------------------------------------
e-------------------------------------------------

guitbox Sun 23 May, 2004 7:05 pm

part 1
e/------------------------------------------------
b/----------9---11---9-----------------9---11---9-
g-------11--------------10---------11-------------
d----11-------------------------11----------------
a-------------------------------------------------
e-------------------------------------------------

this sounds much more correct

3 posts • Page 1 of 1

Follow Muzikum