The Ramones
Cretin Hop (Guitar tab)

Ramones
Cretin Hop
Tabbed by: dr_feelgood104@hotmail.com

Intro:
E|-------------------------------
B|-------------------------------
G|----2-2-----------------7-7-7-7
D|2-2-2-2-2-2-2-2-2-2-2-2-7-7-7-7
A|2-2-0-0-2-2-2-2-2-2-2-2-5-5-5-5
E|0-0-----0-0-0-0-0-0-0-0--------

Verses:
E|-------------------------------
B|-------------------------------
G|----------------9-9-9-9-9-9-9-9
D|7-7-7-7-7-7-7-7-9-9-9-9-9-9-9-9
A|7-7-7-7-7-7-7-7-7-7-7-7-7-7-7-7
E|5-5-5-5-5-5-5-5----------------

E|-------------------------------
B|-------------------------------
G|----------------9-9-9-9-9-9-9-9
D|7-7-7-7-7-7-7-7-9-9-9-9-9-9-9-9
A|7-7-7-7-7-7-7-7-7-7-7-7-7-7-7-7
E|5-5-5-5-5-5-5-5----------------

E|-------------------------------
B|-------------------------------
G|--------9-9-9-9---------9-9-9-9
D|9-9-9-9-9-9-9-9-9-9-9-9-9-9-9-9
A|9-9-9-9-7-7-7-7-9-9-9-9-7-7-7-7
E|7-7-7-7---------7-7-7-7--------

Copyrights
Author: ?
Composer: ?
Publisher: ?

Reactions

CommonCrawl [Bot]

Follow Muzikum