The Ramones
Today Your Love Tommorow The World (Guitar tab)

INTRO / VERSE 4 times
e-------------------------------------------
B-------------------------------------------
G-------5-5-5-5-5---------------------------
D-------5-5-5-5-5-5-5-5-5-5--2-2-2-2-2-2-2-2
A-------3-3-3-3-3-5-5-5-5-5--2-2-2-2-2-2-2-2
E-----------------3-3-3-3-3--0-0-0-0-0-0-0-0

BRIDGE 3 times
e---------------------------------------------
B---------------------------------------------
G------7-7-7-7-7--9-9--5-5--------------------
D------7-7-7-7-7--9-9--5-5--------------------
A------5-5-5-5-5--7-7--3-3--------------------
E---------------------------------------------

OUTRO 3 times
e----------------------------------------
E----------------------------------------
G-------------------------3-3-3----------
D----3-3-3-3-3-3-3-3-3-3--1-1-1--3-------
A----1-1-1-1-1-1-1-1-1-1--1-1-1--1-------
E----1-1-1-1-1-1-1-1-1-1---------1-------




intro/verse
bridge
verse
bridge
verse
bridge
outro

  • james

    Submitted by

    james at Sun 06 Mar, 2005 8:57 am

  • <
Copyrights
Author: ?
Composer: ?
Publisher: ?
More details
Language: English

Reactions

CommonCrawl [Bot]

Follow Muzikum