The Ramones
Happy Birthday (Guitar tab)

ramones

song: happy birthday

the simpsons
episode mr. burns birthday
bobo teddy bear

transcribed by Rudy Guzman

guzman_84@hotmail.com


eb:--------------------------------------------------------------------------------|
Bb:--------------------------------------------------------------------------------|
Gb:--------------------------------------------------------------------------------|
Db:-4/5--5-5-5-5-5-5-5--4/5--5-5-5-5-5-5-5--4/5--5-5-5-5-5-5-5--4/5--5-5-5-5-5-5-5-|
Ab:-2/3--3-3-3-3-3-3-3--2/3--3-3-3-3-3-3-3--2/3--3-3-3-3-3-3-3--2/3--3-3-3-3-3-3-3-|
Eb:--------------------------------------------------------------------------------|

verse
happy birthday to you...
eb:--------------------------------------------------------------------------------------|
Bb:--------------------------------------------------------------------------------------|
Gb:--------------------------------------------------------------------------------------|
Db:-5--5-5--5-5-5--------------------------------5--5-5--5-5-5--5--5-5--5-5-5--10--10-10-|
Ab:-3--3-3--3-3-3--5--5-5--5-5-5--5--5-5--5-5-5--3--3-3--3-3-3--3--3-3--3-3-3--8---8--8--|
Eb:----------------3--3-3--3-3-3--3--3-3--3-3-3------------------------------------------|


eb:-----------------------------------------|
Bb:-----------------------------------------|
Gb:-----------------------------------------|
Db:--10-10-10--5--5-5--7--7-7-7--5-5-5-5-5--|
Ab:--8--8--8---3--3-3--5--5-5-5--3-3-3-3-3--|
Eb:-----------------------------------------|

Copyrights
Author: ?
Composer: ?
Publisher: ?
More details
Language: English

Reactions

CommonCrawl [Bot]

Follow Muzikum