The Ramones
Shes The One (Bass tab)

artist: The Ramones
song: She's the One
album: Road to Ruin
tabbed by: Brady Newbill
for regular tuning(E,A,D,G)
intro 2x
G-----------------------|
D-----------------------|
A-----------------------|
E-3-3333333-0-0000000---|

verse 2x
G------------------------|
D------------------------|
A------------------------|
E-3-333-33-333-0-0000000-|

chorus 2x
G---------------------|----------------------------------------
D---------------------|----------------------------------------
A-0-0-0-000-----------|-------------------0-0-00-5-5-55--------
E-----------1-1-1-111-|-3-3-3-33-0-0-0-00---------------3-3-33-

post chorus(I'll never find a girl...)
G--------------------------------------------------------
D--------------------------------------------------------
A-0-0-00-0-0-00--------------0-0-00-0-0-00-5-5-55-5-5-55-
E--------------3-3-33-0-0-00-----------------------------

listen to the song to find out what goes where
or e-mail me at bn85@bellsouth.net

Copyrights
Author: ?
Composer: ?
Publisher: ?
More details
Language: English

Reactions

CommonCrawl [Bot]

Follow Muzikum