The Ramones
I Just Want To Have Something To Do (Bass tab)

artist: The Ramones
song: I just want to have something to do
album: Road to Ruin
tabbed by: Brady Newbill
regular tuning(E,A,D,G)

main riff
G-----------------------------------------
D-----------------------------------------
A-00000----------------00000--------------
E-----------3-11111-3-----------3-11111-3-

verse 3x
G---------------|---------------------------
D---------------|---------------------------
A-0-0-0-0-------|-0-0-0-0-0-0-0-0-0-0-0-0-0-
E---------1-1/3-|---------------------------

chorus
G-----------------------------------------
D-----------------------------------------
A---------------------0-0-0-0-0-0-0-0-0-0-
E-1-1-1-1-1-3-3-3-3-3---------------------

That should do it. if there's a problem e-mail me at:
bn85@bellsouth.net

Copyrights
Author: ?
Composer: ?
Publisher: ?
More details
Language: English

Reactions

CommonCrawl [Bot]

Follow Muzikum