The Ramones
I Dont Care (Guitar tab)

The Ramones
any corrections
email me @ ability@nirvanaweb.com

here we go standard tuning:

D-11-11-9-11-9-7-7-7-7-9-9-9-9
A-11-11-9-11-9-7-7-7-7-9-9-9-9 x2
E-9--9--7-9--7-5-5-5-5-7-7-7-7

D-10-----8-----6-----10-----
A-10x8---8x8---6x8---10x8---
E-8------6-----4-----8------


after a while of that it goes to this

D-11------9-----7------
A-11-x16--9-16--7-x16--
E-9-------7-----5------

Copyrights
Author: ?
Composer: ?
Publisher: ?
More details
Language: English

Reactions

CommonCrawl [Bot]

Follow Muzikum