The Ramones
Blitzkrieg Bopp (Guitar tab)

Band name: R.A.M.O.N.E.S
Song title: Blitzkrieg Bop
Tabbed by: Harry Irving

Intro/verse riff
Standard tuning

x8/4 means times 4

e-------------------------------------------------------------
B-------------------------------------------------------------
G--6-------11----13---------------6------11-------6-----------
D--7--x8---12----14--x4-----------7--x3--12--x3---7--x6-------
A--7-------12----14---------------7------12-------7-----------
E--5-------10----12---------------5------10-------5-----------
........x3......... then...

then 'Hey ho lets go'

Then play intro/Verse again


Chorus


e---------------------------------------------------------------------
B---------------------------------------------------------------------
G---11-------6-------11-----6-------11--------8-------11-----13-------
D---12--x9---7--x6---12-----7--x2---12--x10---9--x6---12--x2-14--x2---
A---12-------7-------12-----7-------12--------9-------12-----14-------
E---10-------5-------10-----5-------10--------7-------10-----12-------

Copyrights
Author: ?
Composer: ?
Publisher: ?
More details
Language: English

Reactions

CommonCrawl [Bot]

Follow Muzikum