The Ramones
Blitzkrieg Bop Ver 4 (Guitar tab)

Song: Blitzkrieg Bop
Artist: Ramones
album: Ramones
Tabbed by: TobyMan5150

This is a great song, but it has the easiest tab imaginable. I play
in a band, and we play this song, and it sounds 100% correct, so
enjoy!



-----------------------------------------------------------------
-----------------------------------------------------------------
----------------7-7-7-9--9-9-9------------------7-7-7-9--9-9-9---
7-7-7-7-7-7-7-7-7-7-7-9--9-9-9--7-7-7-7-7-7-7-7-7-7-7-9--9-9-9---
7-7-7-7-7-7-7-7-5-5-5-7--7-7-7--7-7-7-7-7-7-7-7-5-5-5-7--7-7-7---
5-5-5-5-5-5-5-5-----------------5-5-5-5-5-5-5-5------------------

-----------------------------------------------------------------
-----------------------------------------------------------------
----------------7-7-7-7-9--9-9-9----------7-7-7-7----------------
7-7-7-7-7-7-7-7-7-7-7-7-9--9-9-9--7-7-7-7-7-7-7-7----------------
7-7-7-7-7-7-7-7-5-5-5-5-7--7-7-7--7-7-7-7-5-5-5-5-7-7-7-7-7-7-7-7
5-5-5-5-5-5-5-5-------------------5-5-5-5---------5-5-5-5-5-5-5-5


then just continue that through the verse.



"hey, ho, lets go, shoot 'em in the back now..."

-----------------------------------------------------------------
-----------------------------------------------------------------
7-7-7-7-7-7-7-7-7-7-7-7-7-7-7-7-----------------7-7-7------------
7-7-7-7-7-7-7-7-7-7-7-7-7-7-7-7-7-7-7-7-7-7-7-7-7-7-7------------
5-5-5-5-5-5-5-5-5-5-5-5-5-5-5-5-7-7-7-7-7-7-7-7-5-5-5-7--7-7-7---
--------------------------------5-5-5-5-5-5-5-5-------5--5-5-5---

"what they want, i dont know, but they're all reved up and ready to go..."

-----------------------------------------------------------------
-----------------------------------------------------------------
7-7-7-7-7-7-7-7-7-7-7-7-7-7-7-7----------------------------------
7-7-7-7-7-7-7-7-7-7-7-7-7-7-7-7-9-9-9-9-9-9-9-9-7-7-7-9--9-9-9---
5-5-5-5-5-5-5-5-5-5-5-5-5-5-5-5-9-9-9-9-9-9-9-9-5-5-5-7--7-7-7---
--------------------------------7-7-7-7-7-7-7-7------------------

Than just repeat that a couple of times, and thats pretty much the
whole song.

Toby

Copyrights
Author: ?
Composer: ?
Publisher: ?
More details
Language: English

Reactions

CommonCrawl [Bot]

Follow Muzikum