The Ramones
Journey To The Centre Of My Mind (Guitar chord)

#
#

==================================================================

This song tabbed by the FERE and MAURO
For corrections, questions, requests or anything else:

s76138@vcldec1.polito.it

G A B B A G A B B A H E Y

==================================================================

JOURNEY TO THE CENTER OF THE MIND
by Ramones
from the album "Acid Eaters"
originally performed by the Amboy Dukes


originally tabbed by: ???????????


[ A C ] x2



A
-------------------------|--------------------------
-8b9---------------------|-------------------10-8---
-------------------------|----------------9---------
-------------------------|--------------------------
-------------------------|--------------------------
-------------------------|--------------------------
(slow bend)

C
-------------------------|--------------------------
-------------------------|-------------------8b10---
-------------------------|--------------------------
-------------------------|--------------------------
-------------------------|--------------------------
-------------------------|--------------------------
(slow bend)

A
-------------------------|--------------------------
-------------5-----5--7--|-b9-r7-------------8--10--
----------------6--------|-------6--------9---------
-------------------------|--------------------------
-------------------------|--------------------------
-------------------------|--------------------------

C
--------------------10b12---|-r10-8----------------------
b12b12-10-8h10p8------------|------10b12r10-8-----10-----
----------------------------|----------------------------
----------------------------|----------------------------
----------------------------|----------------------------
----------------------------|----------------------------

A
-------------------------|--------------------------
8b9---7p5----5--7--5-----|----5--------------8------
----------6-----------6--|-------6--4--2s9------9---
-------------------------|--------------------------
-------------------------|--------------------------
-------------------------|--------------------------

C
----------8--------------|--------------------------
-8--10-8-----8-----------|-------------------10b12--
-------------------------|----------------9---------
-------------------------|--------------------------
-------------------------|--------------------------
-------------------------|--------------------------

A E
-------------------------|--------------------------
-10----10------b12r10-8--|--------------------------
-------------------------|-9-----9------------------
-------------------------|--------------------------
-------------------------|--------------------------
-------------------------|--------------------------


E
Leave your cares behind come with us and find
D E
The pleasures of a journey to the center of the mind


A C C C B Bb A
Come along if you care
A C C C B Bb A
Come along if you dare
A C C C B Bb B
Take a ride to the land inside of your mind


Beyond the seas of thought beyone the realm of what
Across the streams of hopes and dreams where things are really not

Come along if you care...


E
But please realise you'll probably be surprised
C#m A
For it's the land unknown to man
F# E
Where fantasy is fact
C#m A
So if you can, please understand
F# B
You might not come back


[ Guitar solo - slight variation on solo from intro ]


[ A D D# E B Bb ] x3

[ A D D# E ]


Come along if you care
Come along if you dare
Take a ride to the land inside and you'll see

How happy life could be if all of mankind
Would take the time to journey to the center of the mind
D E
Would take the time to journey to the center of the mind
Center of the mind


[ Guitar solo - another variation on intro solo for 10 bars, then ]

(A) B
-------|---------
----8--|-7-------
s9-----|--------- [ fade ]
-------|---------
-------|---------
-------|---------

Copyrights
Author: ?
Composer: ?
Publisher: ?
More details
Language: English

Reactions

CommonCrawl [Bot]

Follow Muzikum