Millencolin
F O X (Bass tab)

Artist - Millencolin
Song - Fox
Album - Pennybridge Pioneers

Intro
G|---------------------------------
D|--------------------------------- x2
A|-5-5---5-5---7--5-5--------------
E|----3-3----3-------5-5--3-5-7-5--

Verse
G|-----------------------------------------
D|----------------------------------------- x2
A|-5555------5555--------------------------
E|------3333------3333-7777-5555-3333-3333-

Chorus
G|---------------------------------
D|--------------------------------- x2
A|-5-5---5-5---7--5-5--------------
E|----3-3----3-------5-5--3-5-7-5--

Verse
G|-----------------------------------------
D|----------------------------------------- x2
A|-5555------5555--------------------------
E|------3333------3333-7777-5555-3333-3333-

Chorus
G|---------------------------------
D|--------------------------------- x2
A|-5-5---5-5---7--5-5--------------
E|----3-3----3-------5-5--3-5-7-5--

Break
G|------------------
D|------------------ x1
A|-5-5-5-5--5-5-5-5-
E|------------------

Bridge
G|-----------------------------------------
D|----------------------------------------- x3
A|-2222-2222-4444-4444-5555-5555-7777-7777-
E|-----------------------------------------

G|-------------------------------------------------------------
D|------------------------------------------------------------- x1
A|-2222-2222-4444-4444-5555-5555-5555-5555-5555-5555-5555-5555-
E|-------------------------------------------------------------

During guitar solo play the chorus
G|---------------------------------
D|--------------------------------- x2
A|-5-5---5-5---7--5-5--------------
E|----3-3----3-------5-5--3-5-7-5--

Chorus
G|---------------------------------
D|--------------------------------- x2
A|-5-5---5-5---7--5-5--------------
E|----3-3----3-------5-5--3-5-7-5--

chorus cont...
G|-------------------
D|------------------- x2
A|-5-5---------------
E|-----5-5--3-5-7-5--

Ending Note
G|------
D|------
A|------
E|--5~--

Copyrights
Author: ?
Composer: ?
Publisher: ?
More details
Language: English

Reactions

CommonCrawl [Bot]

Follow Muzikum