The Emotions

The Emotions
Best Of My Love (Bass tab)

Song: Best of My Love
Band: The Emotins
Album: Boogie Nights (Sountrack)
Tabbed by: Rob MacGuffie (SubDubLBC@aol.com)



Intro:
|--------------------------------------------|
|-5-5--------5-3--------5-5----------5-5-5-5-|
|--------------------------------------------|
|------3-3--------3-3------------------------|

Verse: This is played with several variations,
here are two below.
|-----------------------------------|
|-3----x--2----x--0----x-------0--2-|
|---------------------------3-------|
|-----------------------------------|

|-----------------------------------|
|-3----x--2----x--0--2--3-------0-2-|
|----------------------------3------|
|-----------------------------------|

or the variation:
|-----------------------------------|
|-3----3--2----2--0----0-------0--2-|
|---------------------------3-------|
|-----------------------------------|

|-----------------------------------|
|-3----3--2----2--0--2--3-------0-2-|
|----------------------------3------|
|-----------------------------------|


There are two different choruses played during,
and here they are.

Chorus 1:
|---------------------------------------------------------|
|-3--3-3-3-3-----2--2-2-2-2------0--0-0-0-0---------------|
|----------------------------------------------3--3-3-3-3-|
|------------1---------------0----------------------------|

|--------------------------------1--1-1-1-1----2--2--------|
|-3--3-3-3-3-----2--2-2-2-2--------------------------2-----|
|------------------------------------------------------0-0-|
|----------------------------------------------------------|

|------------------------------------|
|------------5-5-------5-5-------5-5-|
|-5---5------------------------------|
|----------------3-3--------3-3------|


Chorus 2:
|------------------------------------------7----------5-------|
|-3--3-3-3-3-----2--2-2-2-2-----------------------------------|
|-------------------------------5--5-5-5-5-----3--3-3---3-3---|
|-----------------------------------------------------------1-|

|--------------------------------1--1-1-1-1----2--2-2-2-2-|
|-3--3-3-3-3-----2--2-2-2-2-------------------------------|
|---------------------------------------------------------|
|---------------------------------------------------------|

|--------------------------------------------------|
|-----------5-5--------5-5--------5-5------5-5-5-5-|
|-5---5--------------------------------------------|
|----------------3-3--------3-3--------------------|

|Key|

x = mute

OptimusPrime

Submitted by OptimusPrime at Sun 01 Dec, 2002 9:42 am

Author: ?
Composer: ?
Publisher: ?
Language: English

Reactions

CommonCrawl [Bot]

Follow Muzikum