Journey
Separate Ways Worlds Apart (Guitar tab)

SEPARATE WAYS (WORLD'S APART)- JOURNEY
This song is pretty hard it took me a good while to get most of it down...
I didn't even bother putting the solo cause I don't know any of it, oh well we can make do with this.
I'm pretty sure most of this is correct

b - bend
r - release bend
/ - slide up
\ - slide down
x - muted note
* - natural harmonic


INTRO and VERSE
KEYBOARDS
----------|--------------------------------------------------------------------------
----------|--------------------------------------------------------------------------
----------|----------------------x-x-x-5*-x-5*---------------------------------------
----------|-2--2--2-2-2--2--2-2--x-x-x----x------------------------------------------
----------|-2--2--2-2-2--2--2-2--x-x-x-x--x-x----------------------------------------
----------|-0--0--0-0-0--0--0-0------------------------------------------------------

Repeat this part several times while the keyboard does the rest, then go to...

PRE-CHORUS

-------------------------------------------------------------------------------------
--5-5-5-----3--3-3-------------------------0-0-0-------------------------------------
--5-5-5-5---2--2-2--2-2---2-2-4-5--4--2-2--4-4-4-------------------------------------
--5-5-5-5---0-------2-2---2-2-4-5--4--2-2--2-2-2-------------------------------------
--------3-----------0-0---0-0-2-3--2--0-0--------------------------------------------
-------------------------------------------------------------------------------------

CHORUS

-------------------------------------------------------------------------------------
----9-8---8---8-8-8-7-7-7--5---5-----------------------------------------------------
----9-9---9---9-9-9-7-7-7--5---5--7-8----REPEAT-2X-----------------------------------
----9-9---9---9-9-9-7-7-7--5---5--7-8------------------------------------------------
----7-7---7---7-7-7-5-5-5--3---3--5-6------------------------------------------------
--0-----0---0------------------------------------------------------------------------

ok, after doing the chorus a second time, it goes to the friggin hard solo and then does this...

BRIDGE

-------------------------------------------------------------------------------------
-------------------------------------------------------------------------------------
----------5---2-----------5---2------------------------------------------------------
--2---5---5---2---2---5---5---2------------------------------------------------------
--2---5---3---0---2---5---3---0------------------------------------------------------
--0---3-----------0---3--------------------------------------------------------------

chorus again...

OUTRO SOLO
/full /full
* * / /
----12~-14-15----12~-14-15-15b-hold-r15\12~-14-15-17b17-15-17-15-14-15-
-12-----------12-------------------------------------------------------
-----------------------------------------------------------------------
-----------------------------------------------------------------------
-----------------------------------------------------------------------
-----------------------------------------------------------------------

/half
/
-----------------------------------------------------------------------
-17-13----11b11--------------------------------------------------------
-------14--------------------------------------------------------------
--------------------2----2-2---2---2-2---------------------------------
--------------------2----2-2---2---2-2---------------------------------
--------------------0----0-0---0---0-0---------------------------------



this is almost the same as the normal solo except without the fast part, but I know this.
on repeating the outro solo the second time, bend the 12's with a "*" above them fully.

ORDER:
INTRO
VERSE
PRE-CHORUS
CHORUS
INTRO
VERSE
PRE-CHORUS
CHORUS
SOLO (I'LL TAB THIS OUT SOON...)
BRIDGE
CHORUS
OUTRO SOLO

Copyrights
Author: ?
Composer: ?
Publisher: ?
More details
Language: English

Reactions

CommonCrawl [Bot]

Follow Muzikum