Icehouse

Icehouse
The Walls (Bass tab)

ICEHOUSE = "The Walls" - Bass Tab

Standard Tuning(EADG)
Common Time(4/4)

MAIN RIFF:
|------------------|-----------------|-----------------|
|*-----------------|-----------------|-----------------|
|*-1-1-1-1-1-1-1-1-|-1-1-1-1-1-1-1-1-|-3-3-3-3-3-3-3-3-|
|------------------|-----------------|-----------------|
1 & 2 & 3 & 4 & 1 & 2 & 3 & 4 & 1 & 2 & 3 & 4 &

|------------------|
|-----------------*|
|-3-3-3-3-3-3-3-3-*|
|------------------|
1 & 2 & 3 & 4 &

CHORUS:
|----------|---------|---------|---------|---------|---------|
|*---------|---------|---------|---------|---------|---------|
|*---------|---------|-3-3-3-3-|-3-3-3-3-|---------|---------|
|--4-4-4-4-|-4-4-4-4-|---------|---------|-4-4-4-4-|-4-4-4-4-|
1 2 3 4 1 2 3 4 1 2 3 4 1 2 3 4 1 2 3 4 1 2 3 4

|---------|----------|
|---------|---------*|
|---------|---------*|
|-1-1-1-1-|-1-1-1-1--|
1 2 3 4 1 2 3 4

OptimusPrime

Submitted by OptimusPrime at Sun 01 Dec, 2002 10:47 am

Author: ?
Composer: ?
Publisher: ?
Language: English

Reactions

CommonCrawl [Bot]

Follow Muzikum