Icehouse

Icehouse
Electric Blue (Bass tab)

ICEHOUSE - "Electric Blue" - Bass Tab

Common Time(4/4)
Drop D Tuning(DADG)

INTRO/END
G|---------|-------------|---------|---------|
D|---------|-------------|---------|---------|
A|---------|-------6/8\6-|---------|---------|
D|-1-------|-------------|-1-------|---------|
1 2 3 4 1 2 3 & 4 & 1 2 3 4 1 2 3 4

VERSE:
|-----------------|-----------------|-----------------|
|-----------------|-----------------|-----------------|
|-----------------|-----------------|-----------------|
|-0-0-0-0-0-0-0-1/|-3-3-3-3-3-3-3-3-|-4-4-4-4-4-4-4-4-|
1 & 2 & 3 & 4 & 1 & 2 & 3 & 4 & 1 & 2 & 3 & 4 &

|-----------------|-----------------|-----------------|
|-----------------|-----------------|-----------------|
|---------3-3-3-3-|-----------------|-----------------|
|-4-4-4-4---------|-0-0-0-0-0-0-0-1/|-3-3-3-3-3-3-3-3-|
1 & 2 & 3 & 4 & 1 & 2 & 3 & 4 & 1 & 2 & 3 & 4 &

|-----------------|-----------------|-----------------|
|-----------------|-----------------|-----------------|
|-----------------|-------------6/8-|-----------------|
|-4-4-4-4-4-4-4-4-|-4-4-4-4-4-4-----|-0-0-0-0-0-0-0-0-|
1 & 2 & 3 & 4 & 1 & 2 & 3 & 4 & 1 & 2 & 3 & 4 &

|-----------------|-----------------|-------------|
|-----------------|-----------------|-------------|
|-----------------|-1-1-1-1-1-1-1-1-|-1-1-1-1-r-r-|
|-3-3-3-3-3-3-3-3-|-----------------|-------------|
1 & 2 & 3 & 4 & 1 & 2 & 3 & 4 & 1 & 2 & 3 4

1ST CHORUS:
|-----------------|-----------------|-----------------|
|-----------------|-----------------|-----------------|
|-1-1-1-1-1-1-1-1-|-1-1-1-1-1-1-1-1-|-----------------|
|-----------------|-----------------|-3-3-3-3-3-3-3-3-|
1 & 2 & 3 & 4 & 1 & 2 & 3 & 4 & 1 & 2 & 3 & 4 &

|-----------------|-----------------|-----------------|
|-----------------|-----------------|-----------------|
|-1-1-1-1-1-1-1-1-|-1-1-1-1-1-1-1-1-|-1-1-1-1-1-1-1-1-|
|-----------------|-----------------|-----------------|
1 & 2 & 3 & 4 & 1 & 2 & 3 & 4 & 1 & 2 & 3 & 4 &

|-----------------|-----------------|-----------------|
|-----------------|-----------------|-----------------|
|-5-5-5-5-5-5-5-5-|-6-6-6-6-6-6-6-6-|-6-6-6-6-6-6-6/8-|
|-----------------|-----------------|-----------------|
1 & 2 & 3 & 4 & 1 & 2 & 3 & 4 & 1 & 2 & 3 & 4 &

|-----------------|
|-----------------|
|-6-6-6-6-6-6-6-6-|
|-----------------|
1 & 2 & 3 & 4 &

2ND & LAST CHORUS:
|-----------------|-----------------|-----------------|
|-----------------|-----------------|-----------------|
|-1-1-1-1-1-1-1-1-|-1-1-1-1-1-1-1-1-|-----------------|
|-----------------|-----------------|-3-3-3-3-3-3-3-3-|
1 & 2 & 3 & 4 & 1 & 2 & 3 & 4 & 1 & 2 & 3 & 4 &

|-----------------|-----------------|-----------------|
|-----------------|-----------------|-----------------|
|-1-1-1-1-1-1-1-1-|-1-1-1-1-1-1-1-1-|-1-1-1-1-1-1-1-1-|
|-----------------|-----------------|-----------------|
1 & 2 & 3 & 4 & 1 & 2 & 3 & 4 & 1 & 2 & 3 & 4 &

|-----------------|-----------------|-----------------|
|-----------------|-----------------|-----------------|
|-----------------|-1-1-1-1-1-1-1-1-|-1-1-1-1-1-1-1-1-|
|-0-0-0-0-0-0-0-0-|-----------------|-----------------|
1 & 2 & 3 & 4 & 1 & 2 & 3 & 4 & 1 & 2 & 3 & 4 &

|-----------------|-----------------|-----------------|
|-----------------|-----------------|-----------------|
|-1-1-1-1-1-1-1-1-|-----------------|-1-1-1-1-1-1-1-1-|
|-----------------|-3-3-3-3-3-3-3-3-|-----------------|
1 & 2 & 3 & 4 & 1 & 2 & 3 & 4 & 1 & 2 & 3 & 4 &

|-----------------|-----------------|-----------------|
|-----------------|-----------------|-----------------|
|-1-1-1-1-1-1-1-1-|-1-1-1-1-1-1-1-1-|-5-5-5-5-5-5-5-5-|
|-----------------|-----------------|-----------------|
1 & 2 & 3 & 4 & 1 & 2 & 3 & 4 & 1 & 2 & 3 & 4 &

|-----------------|-----------------|
|-----------------|-----------------|
|-6-6-6-6-6-6-6-6-|-6-6-6-6-6-6-6-6-|
|-----------------|-----------------|
1 & 2 & 3 & 4 & 1 & 2 & 3 & 4 &

SOLO:
|-----------------|-----------------|-----------------|
|-----------------|-----------------|-1-1-1-1-1-1-1-1-|
|-----------------|-----------------|-----------------|
|-0-0-0-0-0-0-0-2-|-3-3-3-3-3-3-3-3-|-----------------|
1 & 2 & 3 & 4 & 1 & 2 & 3 & 4 & 1 & 2 & 3 & 4 &

|-----------------|-----------------|-----------------|
|-1-1-1-1-1-1-1-1-|-----------------|-----------------|
|-----------------|-----------------|-----------------|
|-----------------|-0-0-0-0-0-0-0-2-|-3-3-3-3-3-3-3-3-|
1 & 2 & 3 & 4 & 1 & 2 & 3 & 4 & 1 & 2 & 3 & 4 &

|-----------------|-----------------|-----------------|
|-1-1-1-1-1-1-1-1-|-1-1-1-1-1-1-1-1-|-----------------|
|-----------------|-----------------|-3-3-3-3-3-3-3-3-|
|-----------------|-----------------|-----------------|
1 & 2 & 3 & 4 & 1 & 2 & 3 & 4 & 1 & 2 & 3 & 4 &

|-----------------|-----------------|-----------------|
|-----------------|-----------------|-----------------|
|-----------------|-3-3-3-3-3-3-3-3-|-----------------|
|-6-6-6-6-6-6-6-6-|-----------------|-5-5-5-5-5-5-5-5-|
1 & 2 & 3 & 4 & 1 & 2 & 3 & 4 & 1 & 2 & 3 & 4 &

By: Johari Taylor
E-mail: viking@powerup.com.au

OptimusPrime

Submitted by OptimusPrime at Sun 01 Dec, 2002 10:47 am

Author: ?
Composer: ?
Publisher: ?
Language: English

Reactions

CommonCrawl [Bot]

Follow Muzikum