Whitesnake
Here I Go Again Ver 3 (Guitar tab)

Whitenake
Here I go again(the rock version that is on the monsters of rock album)
Tabbed by scott bennett

Key:
PM-Palm mute
b-bend
(-)-Target bend
r-release bend slowly
sd-slide down
su-slide up


All this song is is 5 chords mostly made up of G, C, and D they are in power chord for by the sounds of it

so G5 is d|5- C5 is g|5- and D5 is g|7- theres also A5 d|7- and B5 g|4
a|5- d|5- d|7- a|7- d|4
e|3- a|3- a|5- e|5- a|2

The verse is repeated palm muted G5s played open twice every once in a while listen for timing:

Intro : G5

PM-G5---------------------------
I don't know where I'm going,
PM G5--------------------------- G5 G5
but I sure know where I've been.
PM G5----------------------------------------------- C5 B5 A5
Hanging on the promises in songs of yesterday.
A5 D5
And I've made up my mind.
A5 D5 C5 C5 D5 D5
I ain't wasting no more time.

PM-G5---------------------------
Though I keep searching for an answer,
PM-G5--------------------------- G5 G5
I never seem to find what I'm looking for.
PM G5----------------------------------------------- C5 B5 A5
Oh Lord I pray you give me strength to carry on,
A5 D5
'cause I know what it means,
A5 D5 C5 C5 D5 D5
to walk along, the lonely streets of dreams.

G5 G5 C5 C5 D5 D5 C5 D5
And here I go again on my own,
G5 G5 C5 C5 D5 D5 C5 D5
going down the only road I've ever known.
G5 G5 C5 C5 D5 D5 C5 B5 A5
Like a drifter I was born to walk alone.
PM-A5 A5 PM-A5 A5 PM--D5 D5 PM-D5 D5
And I've made up my mind,
PM-A5 A5 PM-A5 A5 PM--D5 D5 PM-D5 D5 C5 C5 D5 D5
I ain't wasting no more time.

PM-G5---------------------------
I'm just another heart in need of rescue,
PM-G5--------------------------- G5 G5
waiting on love's sweet charity.
PM G5----------------------------------------------- C5 B5 A5
And I'm gonna hold on for the rest of my days,
A5 D5
'cause I know what it means,
A5 D5 C5 C5 D5 D5
to walk alone, the lonely street of dreams.

CHORUS

Solo: A Slight pinch harmonic when releasing the 14 bend slowly!
|---------------------------------------------------------------------------------------------------------------------|
|---------------------------------------------------------------------------------------------------------------------|
|-----------------14b(16)14r--14--12--11--12--14---------------------------------------------------------------|
|----12-12-12------------------------------------------14--12--10-9b(10)r--------12----------------------------|
|--------------------------------------------------------------------------------10-9-----7b(8)r-sd----------------|
|---------------------------------------------------------------------------------------------------------------------|

|-------------12-14-15-15(17)r----20b(22)r-20-19--19b(20)r-17-19-17-------14b(16)-14-------------------|
|----------13--------------------15----------------------------------------------------------------13--------------|
|-------12-----------------------------------------------------------------------------------------------14b(16)r--|
|----10--------------------------------------------------------------------------------------------------------------|
|---------------------------------------------------------------------------------------------------------------------|
|---------------------------------------------------------------------------------------------------------------------|


Well thats it enjoy!

Copyrights
Author: ?
Composer: ?
Publisher: ?
More details
Language: English

Reactions

CommonCrawl [Bot]

Follow Muzikum