Whitesnake
Is This Love (Bass tab)

Whitesnake - Is this love
(standard tuning EADG; common time 4/4)

tabbed by Konni (kaczmarek@redseven.de)
http://people.freenet.de/ace-of-bass

|-----------|-------(3x)|----------|-r-|-----------|-------(3x)|----------|-r-|
|*----------|----------*|----------|-e-|*----------|----------*|----------|-e-|
|*----------|-2223333--*|-32-------|-s-|*----------|-2223333--*|-32-------|-s-|
|--00000003-|--------3--|----5-3-1-|-t-|--00000003-|--------3--|----5-3-1-|-t-|
1+2+3+4+ 1+2+3+4+

|-----------|-------(3x)|----------|------|----------|----------|----------|-----------|
|*----------|----------*|----------|------|----------|----------|----------|-----------|
|*----------|-2223333--*|-32-------|------|-33333333-|-33333333-|-22222222-|-32-----02-|
|--00000003-|--------3--|----5-3-1-|--11--|----------|----------|----------|----5-3----|
1+2+3+4+ 1+2 1+2+3+4+e

|----------|----------|----------|----------|------|-r-|-----|-----------|-------(5x)|
|----------|----------|----------|----------|---3--|-e-|-----|*----------|----------*|
|-33333333-|-33333333-|-22222222-|-32-------|------|-s-|--22-|*----------|-2223333--*|
|----------|----------|----------|----5-3-1-|--1---|-t-|-----|--00000003-|--------3--|
1+2+3+4+ 1+2 4+e

|----------|---------|-----|----------|----------|----------|-----------|
|----------|---3-----|--3--|----------|----------|----------|-----------|
|-32-------|---------|-----|-33333333-|-33333333-|-22222222-|-32-----02-|
|----5-3-1-|--1---1--|-1---|----------|----------|----------|----5-3----|
1+2+3+4+ 1+2 4di 1+2 1+2+3+4+e

|----------|----------|----------|----------|------|-r-|
|----------|----------|----------|----------|---3--|-e-|
|-33333333-|-33333333-|-22222222-|-32-------|------|-s-|
|----------|----------|----------|----5-3-1-|--1---|-t-|
1+2+3+4+ 1+2

|-----|----------|----------|----------|----------|----------|----------|
|-----|----------|----------|----------|----------|----------|----------|
|--22-|----------|-2223333--|--------1-|-2223333--|----------|-2223333--|
|-----|-00000003-|--------3-|-0000044--|--------3-|-00000003-|--------3-|
4e

|----------|------------|----------|----------|----------|-------------|
|----------|------------|----------|----------|----------|------22-----|
|--------1-|-22233333---|----------|-2223333--|--------1-|-22233--33---|
|-0000044--|---------33-|-00000003-|--------3-|-0000044--|----------33-|
1+2+3+4e+e 1+2+3+e4e+e

|----------|----------|----------|------|------|------|
|----------|----------|----------|--33--|------|---3--|
|----------|-22233332-|-32-------|------|------|------|
|-00000003-|----------|----5-3-1-|------|---1--|--1---|
1+2+3+4+ 1+2 4di 1+2

|-----------|----------|----------|------------|
|*----------|----------|----------|-----------*|
|*-33333333-|-33333333-|-22222222-|-32-----02-*| repeat to
|-----------|----------|----------|----5-3-----| fade out
1+2+3+4+e

Copyrights
Author: ?
Composer: ?
Publisher: ?
More details
Language: English

Reactions

CommonCrawl [Bot]

Follow Muzikum