Whitesnake
Here I Go Again (Bass tab)

Artist: Whitesnake
Song: Here I Go Again

Verses 2x
G|-------------------------------|-----------------------------|
D|o-----------------------------o|-----------------------------|
A|o-5-5-5-5-7-7-7-7---------5-7-o|-5-5-5-5-7-7-7-7---------5-4-|
E|-----------------5-5-5-5-------|-----------------5-5-5-5-----|

Prechorus (And I've made up...) 2x
G|-----------------------------------|-------|
D|o---------------------------------o|-------|
A|o-----------------5-5-5-5-5-5-5-5-o|-55-77-|
E|--5-5-5-5-5-5-5-5------------------|-------|

Chorus 2x
G|----------------------|--------------------|
D|o--------------------o|--------------------|
A|o------5-5--7-7--5-7-o|------7-7--5-5--5-4-|
E|-5-5------------------|-5-5----------------|

(And I've made up...) 2x
G|-----------------------------------|-------|
D|o---------------------------------o|-------|
A|o-----------------5-5-5-5-5-5-5-5-o|-55-77-|
E|--5-5-5-5-5-5-5-5------------------|-------|

Bridge (before guitar solo) 3x
G|-----------------------------------|-------|
D|o---------------------------------o|-------|
A|o-9-9-9-9-9-9-9-9-5-5-5-5-5-5-5-5-o|-55-77-|
E|-----------------------------------|-------|

Guitar solo 2x
G|-------------------------------|-----------------------------|
D|o-----------------------------o|-----------------------------|
A|o-5-5-5-5-7-7-7-7---------5-7-o|-5-5-5-5-7-7-7-7---------5-4-|
E|-----------------5-5-5-5-------|-----------------5-5-5-5-----|

2x
G|-----------------------------------|-------|
D|o---------------------------------o|-------|
A|o-----------------5-5-5-5-5-5-5-5-o|-55-77-|
E|--5-5-5-5-5-5-5-5------------------|-------|

...another one tabbed by ridopoco...

Copyrights
Author: ?
Composer: ?
Publisher: ?
More details
Language: English
Available on: 1987 (1987), The Definitive Collection (2006), Whitesnake - 30th Anniversary Collection (Cd 1) (2008)

Reactions

CommonCrawl [Bot]

Follow Muzikum