Whitesnake
Here I Go Again Vers (Guitar tab)

whitesnake
here i go again
tabbed by Alberto Duran





restx27
/----------\
-------------|-----------------------|------------------|---------------------|
-------------|-----------------------|------------------|---------------------|
-------------|-------0-0-0--2-2--2---|-----------0--0---|--2--2--q--0----2----|
-------------|--q-e---------0-0--0---|--0--0--q-------q-|--0--0----------0----|
-------------|-------3-3-3-----------|-----------3--3---|-----------3---------|
-------------|-----------------------|--3--3------------|---------------------|


-------------------|---------------------|--------------------|--------------|
-------------------|---------------------|--------------------|--------------|
-----------0--0----|--2--2--q--0----2----|-----------0--0-----|--2--2----0---|
--0--0--q--------q-|--0--0----------0----|--0--0--q--------q--|--0--0--q-----|
-----------3--3----|-----------3---------|-----------3--3-----|----------32h3p2-
--3--3-------------|---------------------|--3--3--------------|--------------|


-------------------|--------------------|------------------|-------------------|
----------1-3-1----|-----------3--------|---------1-3-1----|-------------------|
----------0-2-0----|--2--------2--------|---------0-2-0----|--2--------0----2--|
-------------------|--0----2-4----------|------------------|--0-------------0--|
--0-0-0-0----------|----------------2-0-|-0-0-0-0----------|-----------3-------|
-------------------|--------------------|------------------|-------------------|

restx5
/--------\
-----------|---------------|---------------------|--------------------|
-----------|---------------|----------1-3-1------|-----------3--------|
-----------|---------------|----------0-2-0------|--2--------2--------|
-----------|--h------------|---------------------|--0----2-4----------|
-----------|-----3----2----|--0-0-0-0------------|----------------3-2-|
-----------|---------------|---------------------|--------------------|


-------------------|----------------------|-------------------|----------------|
---------1-3-1-----|-2----2-2-0--0-0-2----|-------------------|----------------|
---------0-2-0-----|-0----0-0--------0----|----------0--0-----|-2--2-----0----2|
-------------------|----------3--3-3------|-0--0--q--------q--|-0--0--q-------0|
-0-0-0-0-----------|----------------------|----------3--3-----|----------3-----|
-------------------|----------------------|-3--3--------------|----------------|


-------------------|--------------------|-----------------|--------------------|
-------------------|--------------------|-----------------|--------------------|
----------0--0-----|-2--2-----0----2----|----------0--0---|--2--2----0---------|
-0--0--q--------q--|-0--0--q-------0----|--0--0--q------q-|--0--0--q-----------|
----------3--3-----|----------3---------|----------3--3---|----------3----2-3-2|
-3--3--------------|--------------------|--3--3-----------|----------------------|


-----------------------|-------------------|--------------------|------------|
----------1-3-1--------|----------3--------|---------1-3-1------|-----------0|
----------0-2-0--------|-2--------2--------|---------0-2-0------|-------2----|
-----------------------|-0----2-4----------|--------------------|-e-2-4----2-4|
-0-0-0-0---------------|---------------2-0-|-0-0-0-0------------|------------|
-----------------------|-------------------|--------------------|------------|


--0-----0-----------|------------------|--------------------|--------0-0-----|
--------0-----------|------------------|--------0-----------|------3-0-0--3--|
--------------------|--------2---------|--------------------|------2------2--|
--------2-----------|-2----e-----------|------e-2-----------|-2--------------|
--------------------|-0----------------|-2------------------|-0--------------|
--------------0-3-0-|--------------3-2-|-0------0-----0-3-0-|------------3-2-|


-0------0--------------|-----------------------------|-0------0-------------|
--------0--------------|-------------0---------------|--------0-------------|
-----------------------|---------0-----0-2-2---0-----|----------------------|
--------2------s-------|-2-----2---2---------2---2-0-|--------2-------------|
-----------------------|-0---------------------------|----------------------|
-----------------0-3-0-|-----------------------------|----------------0-3-0-|


------------------|-----------------3--|-3-2--3----------0-2--3-|
------------------|---0-1--3-----------|--------1---------------|
--------0----2----|----------2---------|------------------------|
-2-----------0----|-q------------------|------------------------|
-0------3---------|--------------------|------------------------|
------------------|--------------------|------------------------|


-5-5-----5-3-5-----------5-|-3-----3-3--------|-17----17----15---17--------|
---------------3------3----|------------------|---------------------15-----|
------------------2-2------|------------------|----------------s-----------|
---------------------------|------------------|----------------------------|
---------------------------|------------------|----------------------------|
---------------------------|------------------|----------------------------|



---------------0-5-0-5----12-12-12--14-|-19------------------|----------------|
---------------7-8-7-8-13-15-----------|----------1-3-1------|----------3-----|
----0----0-0-0---------16--------------|----------0-2-0------|-2--------2-----|
---------7---4-------------------------|---------------------|-0----2-4-------|
----9-9--------------------------------|-0--0-0-0------------|------------3-2-|
-12---12-------------------------------|---------------------|----------------|


--------------------|-----------------------|---------------|------------------|
---------1-3-1------|-----------------------|---------------|------------------|
---------0-2-0------|-2------2-2-0--0-0-2---|--------0--0---|-2--2---0----2----|
--------------------|-0------0-0--------0---|-0--0-q------q-|-0--0-q------0----|
-0-0-0-0------------|------------3--3-3-----|--------3--3---|--------3---------|
--------------------|-----------------------|-3--3----------|------------------|


---------------|------------------|---------------|--------------------|
---------------|------------------|---------------|--------------------|
--------0--0---|-2--2---0----2----|--------0--0---|-2--2-q-0-----------|
-0--0-q------q-|-0--0-q------0----|-0--0-q------q-|-0--0---------------|
--------3--3---|--------3---------|--------3--3---|--------3----2-3-2--|
-3--3----------|------------------|-3--3----------|--------------------|


-------------------|--------------------|-------------------|-----------------|
---------1-3-1-----|----------3---------|---------1-3-1-----|-----------------|
---------0-2-0-----|-2--------2---------|---------0-2-0-----|-2-----2-2-0-0-02|
-------------------|-0----2-4-----------|-------------------|-0-----0-0----0--|
-0-0-0-0-----------|----------------2-0-|-0-0-0-0-----------|-----------3--3-3-|
-------------------|--------------------|-------------------|-----------------|


----------------|------------------|---------------|------------------|
----------------|------------------|---------------|------------------|
--------0--0----|-2--2-q-0----2----|--------0--0---|-2--2---0----2----|
-0--0-q------q--|-0--0--------0----|-0--0-q------q-|-0--0-q------0----|
--------3--3----|--------3---------|--------3--3---|--------3---------|
-3--3-----------|------------------|-3--3----------|------------------|


---------------|--------------------|--------------------|---------------------|
---------------|--------------------|---------1-3-1------|----------3----------|
--------0--0---|-2--2---0-----------|---------0-2-0------|-2--------2----------|
-0--0-q------q-|-0--0-q-------------|--------------------|-0----2-4------------|
--------3--3---|--------3----2-3-2--|-0-0-0-0------------|-----------------2-0-|
-3--3----------|--------------------|--------------------|---------------------|



--------------------|--------------------|---------------|------------------|
---------1-3-1------|--------------------|---------------|------------------|
---------0-2-0------|-2--------0----2----|--------0--0---|-2--2---0----2----|
--------------------|-0-------------0----|-0--0-q------q-|-0--0-q------0----|
-0-0-0-0------------|----------3---------|--------3--3---|--------3---------|
--------------------|--------------------|-3--3----------|------------------|



----------------|------------------|---------------|--------------------|
----------------|------------------|---------------|--------------------|
---------0--0---|-2--2---0----2----|--------0--0---|-2--2---0-----------|
--0--0-q------q-|-0--0-q------0----|-0--0-q------q-|-0--0-q-------------|
---------3--3---|--------3---------|--------3--3---|--------3----2-3-2--|
--3--3----------|------------------|-3--3----------|--------------------|


some of this notes are out of place because i had no space but i put the a little bit together for the timing of the song

Copyrights
Author: ?
Composer: ?
Publisher: ?
More details
Language: English

Reactions

CommonCrawl [Bot]

Follow Muzikum