Megadeth

Megadeth
Holy Wars... The Punishment Due (Guitar tab)

Holy Wars ... The Punishment Due
Megadeth
Please rate!!
Over past couple days ive found minor mistakes and i am fixing them as fast as possible

Legend:
* - palm mute
h - hammer on
p - pull off
+ - natural harmonic
fdbk - feedback
/ - slide up
\ - slide down
x - percussive muted pick scratch
hpb - half pre bend (ex. 22 pre bent to 23)
qb - quarter bend
hb - half bend
fb - full bend
f+hb - one and a half bend
r - release bend
wbd - whammy bar dive
(5) - ghost note
~ - vibrato

NOTE: Listen to the song for the timing
Guitar I is Dave Mustaine
Guitar II is Marty Friedman

Intro - guitar I

e------------------------------------------------------------------------------|
B------------------------------------------------------------------------------|
G------------------------------------------------------------------------------|
D------------------------------------------------------------------------------|
A-5-6-7----------------------------2---(2)--5-6-7----------------------------4-|
E--------5-6-7--7-6-5--5-4-3--5-3--0---(0)---------5-6-7--7-6-5--5-4-3--5-3--2-|

e----------------------------------------------------------------------------------------|
B----------------------------------------------------------------------------------------|
G----------------------------------------------------------------------------------------|
D----------------------------2-3-4-------------------------------------------------------|
A-5-6-7-----------------------------3-4-5--5-4-3--4-3-2--5-6-7---------------------------|
E--------5-6-7--7-6-5--5-4-3------------------------------------5-6-7--7-6-5--5-4-3--0-0-|
* *
Riff 1 - 2x

e-------------------------------------------------------------------------------------------------|
B-------------------------------------------------------------------------------------------------|
D-------------------------------------------------------------------------------------------------|
D-------------------------------------------------------------------------------------------10----|
A-5h7-----10p7----------5h7-----5h7--------7---8---5h7-----10p7----------5h7-----5h7--------8---9-|
E-----000------00000000-----000-----0000---5---6-------000------00000000-----000-----0000-------7-|
*** ******** *** **** *** ******** *** ****
e------------------------------------------------|
B------------------------------------------------|
G------------------------------------------------|
D-------------------------------------------4----|
A-5h7-----10p7----------5h7-----5h7---------2--5-|
E-----000------00000000-----000-----0000-------3-|
*** ******** *** ****
ending 1

e-------------------------------------------------------------------------|
B-------------------------------------------------------------------------|
G-------------------------------------------------------------------------|
D---------------------------------------------------4--(4)---4----4-------|
A-5h7-----10h7---------9-(9)-------8-(8)------7--5--2--(2)---2----2--5--4-|
E-----000------000000--7-(7)-0000--6-(6)--00--5--3-------------------3--2-|
*** ****** **** **
ending 2

e-------------------------------------------|
B-------------------------------------------|
G-------------------------------------------|
D-------------------------------------------|
A-5h7-----10p7------------------------------|
E-----000------000000-7~--0000-6~--00-5~--0-|
*** ****** **** **
e-------------------------------------------|
B-------------------------------------------|
G-------------------------------------------|
D-------------------------------------------|
A-5h7-----10p7--------6~-------5~-----4~----|
E-----000------000000-----0000-----00-----5-|
*** ****** **** **
e-------------------------------------------|
B-------------------------------------------|
G-------------------------------------------|
D-------------------------------------------|
A-5h7-----10p7--------9~-------8~-----7~----|
E-----000------000000-----0000-----00-----0-|
*** ****** **** **
e----------------------------------------|
B----------------------------------------|
G----------------------------------------|
D---------------------9~-------8~--7~----|
A-5h7-----10p7-------------------------8-|
E-----000------000000-----0000-----------|
*** ****** ****

Riff 2 - Friedman
7x
e-------------------------------------------|
B-------------------------------------------|
G-------------------------------------------|
D-------------------------------------------|
A-5h7-----10p7----------5h7-----5p7-------9-|
E-----000------00000000-----000-----0000--7-|
*** ******** *** ****
e----------------------------------------|
B----------------------------------------|
G----------------------------------------|
D----------------------------------------|
A-5h7-----10p7----------5h7-----5h7------|
E-----000------00000000-----000-----0000-|
*** ******** *** ****

Riff 2 Fill - Mustaine

E-------------------------------------------------------------------------------------|
B-------------------------------------------------------------------------------------|
G-------------------------------------------------------------------------------------|
D----12----------12----14------9---------------12----------12----14------9------------|
A-10----10----10----12-----7-6---5-5/7~-----10----10----10----12-----7-6---5-5/7~-----|
E----------12----------------------------------------12-------------------------------|

e---------------------------------------------------------------------------------|
B---------------------------------------------------------------------------------|
G-----------------------------------------------------------------8------7--------|
D----12----------12----14------9---------------12----------12---------------------|
A-10----10----10----12-----7-6---5-5/7~-----10----10----10----6-9----5-8----5/7~~-|
E----------12----------------------------------------12---------------------------|

Riff 3

e-----------------------------------------------------------------------------|
B-----------------------------------------------------------------------------|
G-----------------------------------------------------------------------------|
D-----------------------------------------------------------------------------|
A-5---4/5---4-----4/5-----5\4-----4/5--5h7-----10p7----------5h7-----5h7------|
E-3-0-2/3-0-2-0-0-2/3-0-0-3\2-0-0-2/3------000------00000000-----000-----0000-|
* * * * * * * * *** ******** *** ****
e-----------------------------------------------------------------------------|
B-----------------------------------------------------------------------------|
G-----------------------------------------------------------------------------|
D-----------------------------------------------------------------------------|
A-5---1/2---1-----1/2-----2\1-----1/2--5h7-----10p7----------5h7-----5h7------|
E-3-0-2/3-0-2-0-0-2/3-0-0-3\2-0-0-2/3------000------00000000-----000-----0000-|
* * * * * * * * *** ******** *** ****
e-----------------------------------------------------------------------------|
B-----------------------------------------------------------------------------|
G-----------------------------------------------------------------------------|
D-----------------------------------------------------------------------------|
A-5---4/5---4-----4/5-----5\4-----4/5--5h7-----10p7----------5h7-----5h7------|
E-3-0-2/3-0-2-0-0-2/3-0-0-3\2-0-0-2/3------000------00000000-----000-----0000-|
* * * * * * * * *** ******** *** ****
e------------------------------------------------|
B------------------------------------------------|
G------------------------------------------------|
D------------------------------------------------|
A-5-----1/2-----1------4/5------5\4--------------|
E-3--0--2/3--0--2--00--2/3--00--3\2--00--5--7--8-|
* * ** ** **

Verse 1 and 2 - 2x for each verse

e--------------------------------------------------------------------------|
B--------------------------------------------------------------------------|
G-----------4--3-----------------------------------------------------------|
D-----------5--4------------------------------5--4-------------------------|
A-5-6-7-----------5-6-7-------------5-6-7-----7--6--5-6-7------1~~----1--2-|
E-------000-------------0000-6~-7-6-------000-------------0000-2~~-0--2--3-|
*** **** *** **** *

e-------------------------------------------------------------------------|
B-------------------------------------------------------------------------|
G-------------------------------------------------------------------------|
D-------------------------------------------------------------------------|
A-4----4-(4)---2-4-5----5-(5)---------------5-(5)-4-------------8-(8)-7---|
E-5-00-5-(5)-0-3-5-6-00-6-(6)-5-3-5-3p0-000-6-(6)-5-3-5-3p0-000-6-(6)-5-3-|
** * ** *** ***

e--------------------------------------------------------------------------|
B--------------------------------------------------------------------------|
G-----------4--3-----------------------------------------------------------|
D-----------5--4------------------------------9--8-------------------------|
A-5-6-7-----------5-6-7-------------5-6-7-----7--6--5-6-7------1~~----1--2-|
E-------000-------------0000-6~-7-6-------000-------------0000-2~~-0--2--3-|
*** **** *** **** *

e-------------------------------------------------------------------------|
B-------------------------------------------------------------------------|
G-------------------------------------------------------------------------|
D-------------------------------------------------------------------------|
A-4----4-(4)---2-4-5----5-(5)---------------5-(5)-3-------------8-(8)-7---|
E-5-00-5-(5)-0-3-5-6-00-6-(6)-5-3-5-3p0-000-6-(6)-5-4-5-3p0-000-6-(6)-5-3-|
** * ** *** ***

Intro to Marty's Solo

e-------------------------------|
B-------------------------------|
G-------------------------------|
D-------------------------------|
A-5-6-7-------------------------|
E-------5-6-7-7-6-5-5-5-3-3-3-0-|


Marty's classical solo

e----------------------12\11----11/--12----12\10----10\8----8\7---7\5---5\|
B------12----10-12-13--------13---------13-------12------10-----9-----6---|
G-9h10--------------------------------------------------------------------|
D-------------------------------------------------------------------------|
A-------------------------------------------------------------------------|
E-------------------------------------------------------------------------|

e-4---4/5---5--7-7/10--7--5h6p5------------------------------------------------0-|
B---5-----6---------------------6----------------------------------------------0-|
G----------------------------------7-8-9-6-8-9-8-7-6-5-4--2-5-4-2-1--------------|
D-------------------------------------------------------------------5-4-3-2----2-|
A------------------------------------------------------------------------------2-|
E------------------------------------------------------------------------------0-|

Bridge - 4x

e---------------------------------|
B---------------------------------|
G---------------------------------|
D---------------------------------|
A-3-2---2-----3-2---2-----2-3-5~~-|
E-3-2-0-2-0-0-3-2-0-2-0-0---------|
* * * * * * * *
... The Punishment Due 2x - Guitar I

e--------------------------------------------------0--------0--------|
B----------------------------------------------------0--------0------|
G--------------------------------------------------------------------|Play the 2 in the
D-------0h2-----4------5-(5)\----0h2-----4---------------------------|bracket first time only
A-{2}--------2------3--3-(3)\---------2--2----2--1-----1--0-----0----|first 0 is a tie second
E--0--0-----------0------------0-----------0--3--2-----2--1-----1--0-|time

verse 3 - guitars I and II - 2x

e-------------------------------------------------------------------0--------0-------|
B---------------------------------------------------------------------0--------0-----|
G------------------------------------------------------------------------------------|
D-----0h2-----4------5--(5)--5-5-5-5-5-5-5-------0-2-----4---------------------------|
A-2-2------2------3-(3)-(3)--3-3-3-3-3-3-3---2-2------2--------2--1-----1--0-----0-2-|
E-0-0-----------0----------------------------0-0------------0--3--2-----2--1-----1-0-|
* * * * * * *
e-------------------------------------------------------------------0--------0-------|
B---------------------------------------------------------------------0--------0-----|
G------------------------------------------------------------------------------------|
D-----0h2-----4------5--(5)--5-5-5-5-5-5-5-------0-2-----4---------------------------|
A-2-2------2------3-(3)-(3)--3-3-3-3-3-3-3---2-2------2--------2--1-----1--0-----0-2-|
E-0-0-----------0----------------------------0-0------------0--0--2-----2--1-----1-3-|
* * * * * * *

Solo 1 Rhythm - Mustaine

e-----------------------------------------------------------------|
B-----3-0-------------1---------------3-0-------------1-----------|
G---------0---------3---3-----------------0---------3---3---------|
D-----------3-0---3-------3-----------------3-0---3-------3-------|
A---2-----------1-------------------2-----------1-----------------|
E-3-------------------------0-1-2-3-------------------------0-1-2-|
* * * * * * * * * * * * * * * * * * * * * *
e--------------------------------------------------0--------0--------|
B-----3-0-------------1---------------3-0------------0--------0------|
G---------0---------3---3-----------------0--------------------------|
D-----------3-0---3-------3-----------------3------------------------|
A---2-----------1-------------------2----------2-1------1-0------0-2-|
E-3-------------------------0-1-2-3------------3-2------2-1------1-0-|
* * * * * * * * * * * * * * *

Solo 1 - Friedman

e------------7-10p7-----------6-10p6-13-------------10-13p10----------13-18p13-13--19-19hb20~~-|
B----------8--------8-------8--------------------11----------11----15--------------------------|
G--------7------------7---7-------------------10----------------15-----------------------------|
D------9----------------9---------------12-12--------------------------------------------------|
A----------------------------------------------------------------------------------------------|
E-7-10-----------------------------------------------------------------------------------------|

e-15--------------------------20fb22~~--20fb22~~---hpb24f+hb28-hpb24f+hb28-hpb24f+hbb28-hpb24~~-|
B----15-17hb18r-(17)hb18r-15---------------------x----------------------------------------------|
G------------------------------------------------x----------------------------------------------|
D-----------------------------------------------------------------------------------------------|
A-----------------------------------------------------------------------------------------------|
E-----------------------------------------------------------------------------------------------|

e-hpb24-22-18------------------------------------------------------------------|
B-------------20---------------------------------------------------------------|
G----------------19----------------------12-12-12--14-14-14-15-15-15-17-17-17\-|
D-------------------20-19------------------------------------------------------|
A-------------------------22---------10--10-10-10--12-12-12-13-13-13-15-15-15\-|
E----------------------------22-18~--------------------------------------------|

e-------------18----------------------------------------------------------20fb22-|
B-/18--15h18-----18p15----15h18p15----------18p15-15-----------------------------|
G----------------------18----------18p17p15----------18p17p15----18-17p15--------|
D-------------------------------------------------------------17-----------------|
A--------------------------------------------------------------------------------|
E--------------------------------------------------------------------------------|

Guitar 1

e---------------------------------/+++++++++\------------------------0--------0--------|
B---------------------------------5------------------------------------0--------0------|
G------------------------------------5-------------------------------------------------|
D---0h2---4------5--(5)-------5-5-------5----------0h2-----4---------------------------|
A-2-----2-----3-----(3)-3-3-3-3-3----------5----2-------2--2----2--1-----1--0-----0--2-|
E-0---------0---------------------\+++++++++/---0------------0--3--2-----2--1-----1--0-|

Guitar 2

e--------------------------------------------------------------------------------------|
B--------------------------------------------------------------------------------------|
G--------------------------------------------------------------------------------------|
D--------------------------------------------------------------------------------------|
A-----------------------------------------------2---------------2--1-----1--0-----0--2-|
E-----------------------------------------------0---------------3--2-----2--1-----1--0-|

verse 4 - guitars I and II - 2x

e-------------------------------------------------------------------0--------0-------|
B---------------------------------------------------------------------0--------0-----|
G------------------------------------------------------------------------------------|
D-----0h2-----4------5--(5)--5-5-5-5-5-5-5-------0-2-----4---------------------------|
A-2-2------2------3-(3)-(3)--3-3-3-3-3-3-3---2-2------2--------2--1-----1--0-----0-2-|
E-0-0-----------0----------------------------0-0------------0--3--2-----2--1-----1-0-|
|------7------|
e-------------------------------------------------------------------0--------0-------|
B---------------------------------------------------------------------0--------0-----|
G------------------------------------------------------------------------------------|
D-----0h2-----4------5--(5)--5-5-5-5-5-5-5-------0-2-----4---------------------------|
A-2-2------2------3-(3)-(3)--3-3-3-3-3-3-3---2-2------2--------2--1-----1--0-----0-2-|
E-0-0-----------0----------------------------0-0------------0--0--2-----2--1-----1-3-|
|------7------|

Solo 2 - Friedman

e------------------------------------------------------------------------------------------------|
B-x-----------------------------------------------------------6--8-6h8p6----8--------------------|
G-x-5fb7--(7)r-3----------------------x-3/5-5-5fb7r~~-----5-7-------------7---10fb12-7--10--10~~-|
D----------------5fb7r-(5)5p3---------x-----------------5----------------------------------------|
A-----------------------------5-3----------------------------------------------------------------|
E---------------------------------6~~------------------------------------------------------------|

e----------------------------------------------22-18-17----------18-15--------------|
B-------------------15-18fb20~~--15--18-18fb20----------18\15-18-------18-15--------|
G----------------15----------------------------------------------------------18-19--|
D----------15-17--------------------------------------------------------------------|
A-------17--------------------------------------------------------------------------|
E-12/19-----------------------------------------------------------------------------|
End Solo
e---20fb22--(22)r-15------------------------------------|
B-x------------------18fb20~----------------------------|
G-x---------------------------15/17-17/18-18\17-(17)~~\-|
D-------------------------------------------------------|
A-------------------------------------------------------|
E-------------------------------------------------------|

Guitars I and II 2x

e--------------------------------------------------|
B--------------------------------------------------|
G--------------------------------------------------|
D-----/++++++++++++++++++++++++++++++++++++++++++\-|
A-2--/--------------------------------------------\|
E-0--3---3---3---3---3-3-3---3---3---3-3-3---3-3-3-|

e-----------------------------------------------------|
B-----------------------------------------------------|
G-----------------------------------------------------|
D-----------------------------------------------------|
A-2--5--2--4/5-----4--------4/5--------5\4--------4/5-|
E-0--3--0--2/3--0--2--0--0--2/3--0--0--3\2--0--0--2/3-|

e--------------------------------------------------|
B--------------------------------------------------|
G--------------------------------------------------|
D-----/++++++++++++++++++++++++++++++++++++++++++\-|
A-2--/--------------------------------------------\|
E-0--3---3---3---3---3-3-3---3---3---3-3-3---3-3-3-|

e-----------------------------------------------------|
B-----------------------------------------------------|
G-----------------------------------------------------|
D-----------------------------------------------------|
A-2--5--2--1/2-----1--------1/2--------2\1--------1/2-|
E-0--3--0--2/3--0--2--0--0--2/3--0--0--3\2--0--0--2/3-|

solo 3 rhythm - guitar I - 8x

e--------------------------------------------------|
B--------------------------------------------------|
G--------------------------------------------------|
D-----/++++++++++++++++++++++++++++++++++++++++++\-|
A-2--/--------------------------------------------\|
E-0--3---3---3---3---3-3-3---3---3---3-3-3---3-3-3-|

e-----------------------------------------------------|
B-----------------------------------------------------|
G-----------------------------------------------------|
D-----------------------------------------------------|
A-2--5--2--4/5-----4--------4/5--------5\4--------4/5-|
E-0--3--0--2/3--0--2--0--0--2/3--0--0--3\2--0--0--2/3-|

Solo 3 - all feedback in pitch - Guitar II
fdbk fdbk fdbk fdbk fdbk fdbk
e----------------------------------------------17fb-r-(17)fb-(17)-17fb-r-(17)fb-(17)-|
B------------------------------------------------------------------------------------|
G----(14)----(14)----14-------(14)---(14)--14----------------------------------------|
D------------------------------------------------------------------------------------|
A------------------------------------------------------------------------------------|
E------------------------------------------------------------------------------------|
Pitch:A A A B A

e-17fb-r-(17)fb-17fb-r-(17)-17fb-17fb-r-(17)fb-17p15p12-12---12-12-------------------|
B------------------------------------------------------------------17p15p12-17p15p12-|
G------------------------------------------------------------------------------------|
D------------------------------------------------------------------------------------|
A------------------------------------------------------------------------------------|
E------------------------------------------------------------------------------------|

e-------------------------------------------------------------------------------------|
B-17p15p12----12----------------------------------------------------------------------|
G----------15----15p14p12-15p14p12-15p14p12----12-------------------------------------|
D-------------------------------------------14----14-13-12-14p13p12----14p13p12-------|
A-------------------------------------------------------------------14----------14p13-|
E-------------------------------------------------------------------------------------|

e-------------------------------------------------------------------------------|
B-------------------------------------------------------------------------------|
G-------------------------------------------------------------------------------|
D-------------------------------------------------------/+\---------------------|
A-14p13p12-14p13p12----41p13p12-10-12-10-12p10-----------5--3-0-3p0--3p0----3p0-|
E-------------------14-------------------------0-(0)--0-\+/---------------4-----|

e-------------------------------------------------------------------------------------|
B-------------------------------------------------------------12-12h15p12-15-15-17p15-|
G-------------------------------14----12h14-12h14-15p14p12----------------------------|
D-------------------12-13--14------14----------------------14-------------------------|
A-10h12p10-12h13-14-------------------------------------------------------------------|
E-------------------------------------------------------------------------------------|

e-------------------------------------12h15h17----------12h15h17----------12h15h17-----------|
B-17p15p12-15h17p15p12-17p15p12-15h17----------12h15h17----------12h13h17-----------12h15h17-|
G--------------------------------------------------------------------------------------------|
D--------------------------------------------------------------------------------------------|
A--------------------------------------------------------------------------------------------|
E--------------------------------------------------------------------------------------------|

e-12h15h17-17p15p12-17hb-(17)-r-12-17p15p12--------------------------------------------------|
B-------------------------------------------17-17p15p12-17p15p12--------------------15p14p12-|
G----------------------------------------------------------------15--12----------------------|
D-----------------------------------------------------------------------15-15p12-14----------|
A--------------------------------------------------------------------------------------------|
E--------------------------------------------------------------------------------------------|

e--------------------------------------------------------------------------------------|
B-15p12--15p12----12-15p12-17p12----12-15p12-17p12----12-17p12----12-15p12-17p12----12-|
G--------------15----------------15----------------15----------15----------------15----|
D--------------------------------------------------------------------------------------|
A--------------------------------------------------------------------------------------|
E--------------------------------------------------------------------------------------|

e------------------------------------------------------------------------------------------------|
B-15p12-17p12---12-17p12----12-15p12-17p12----12-15p12-17p12----12-17p12----12-15p12-17p12----12-|
G------------15----------15----------------15----------------15----------15----------------15----|
D------------------------------------------------------------------------------------------------|
A------------------------------------------------------------------------------------------------|
E------------------------------------------------------------------------------------------------|

e-------------------------------------------------------------------------------------------------|
B-15p12-17p12----12-15p12----12-17p12----12-15p12----12-17p12----12-15p12----12-17p12----12-15p12-|
G-------------15----------16----------16----------16----------16----------16----------16----------|
D-------------------------------------------------------------------------------------------------|
A-------------------------------------------------------------------------------------------------|
E-------------------------------------------------------------------------------------------------|

e-------------------------------------------------------------------------------------------------|
B----12-17p12----12-17p15-12----12-17p15p12----12-17p15p12----12-17p15p12----12-17p15p12----12-12-|
G-16----------16-------------15-------------15-------------15-------------15-------------15-------|
D-------------------------------------------------------------------------------------------------|
A-------------------------------------------------------------------------------------------------|
E-------------------------------------------------------------------------------------------------|

e-------------------------------------------------------------------------------------------------|
B----17p15p12----17p15p12----17p15p12----17p15p12----18p16p13----18p16p13----18p16p13----18p16p13-|
G-12----------12----------12----------12----------12----------13----------13----------13----------|
D-------------------------------------------------------------------------------------------------|
A-------------------------------------------------------------------------------------------------|
E-------------------------------------------------------------------------------------------------|

e-------------------------------------------------------------------------------------------------|
B----18p16p13----19p17p14----19p17p14----19p17p14----19p17p14----20p18p15----20p18p15----20p18p15-|
G-13----------13----------14----------14----------14----------14----------15----------15----------|
D-------------------------------------------------------------------------------------------------|
A-------------------------------------------------------------------------------------------------|
E-------------------------------------------------------------------------------------------------|

e-------------------------------------------------------------------------------------------------|
B----20p18p15----21p19p16----21p19p16----22p20p17----22p20p17----23p21p18----23p21p18----24p22p19-|
G-15----------15----------16----------16----------17----------17----------18----------18----------|
D-------------------------------------------------------------------------------------------------|
A-------------------------------------------------------------------------------------------------|
E-------------------------------------------------------------------------------------------------|
End solo
e----------------22fb-22fb-22fb-22fb-22fb-22fb-22fb/0----------------------------------------|
B----24p22p19--------------------------------------------------------------------------------|
G-19----------19-----------------------------------------------------------------------------|
D--------------------------------------------------------------------------------------------|
A--------------------------------------------------------------------------------------------|
E---------------------------------------------------------0wbdf-(hold this note thru Riff 4)-|

Riff 4
4x
e----------------------------------------|
B----------------------------------------|
G----------------------------------------|
D----------------------------------------|
A-5h7-----10p7---------5h7-----5h7-----9-|
E-----000------0-0-0-0-----000-----0-0-7-|
*** * * * * *** * *

Riff 5
10x
e----------------------------------------|
B----------------------------------------|
G----------------------------------------|
D----------------------------------------|
A-5h7-----10p7---------5h7-----5h7-----9-|
E-----000------0-0-0-0-----000-----0-0-7-|
*** * * * * *** * *

e------------------------------------|
B------------------------------------|
G--------------------------8------7--|
D------------------------------------|
A-5h7-----10p7---------6-9----5-8----|
E-----000------0-0-0-0---------------|
*** * * * *

Riff 5 Fill - Mustaine

E-------------------------------------------------------------------------------------|
B-------------------------------------------------------------------------------------|
G-------------------------------------------------------------------------------------|
D----12----------12----14------9---------------12----------12----14------9------------|
A-10----10----10----12-----7-6---5-5/7~-----10----10----10----12-----7-6---5-5/7~-----|
E----------12----------------------------------------12-------------------------------|

e---------------------------------------------------------------------------------|
B---------------------------------------------------------------------------------|
G-----------------------------------------------------------------8------7--------|
D----12----------12----14------9---------------12----------12---------------------|
A-10----10----10----12-----7-6---5-5/7~-----10----10----10----6-9----5-8----5/7~~-|
E----------12----------------------------------------12---------------------------|

Riff 6
2x
e----------------------------------------|
B----------------------------------------|
G----------------------------------------|
D----------------------------------------|
A-5h7-----10p7---------5h7-----5h7-----9-|
E-----000------0-0-0-0-----000-----0-0-7-|
*** * * * * *** * *

e-------------------------------------------------------------------------------------|
B-------------------------------------------------------------------------------------|
G-------------------------------------------------------------------------------------|
D-------------------------------------------------------------------------------------|
A-5h7-----10p7----------5h7-----10h7----------5h7-----10p7----------5h7-----10h7------|
E-----000------00000000-----000------00000000-----000------00000000-----000------0000-|
*** ******** *** ******** *** ******** *** ****

Outro

e-----------------------------------------------------------------|
B-----------------------------------------------------------------|
G-----------------------------------------------------------------|
D-----------------------------------------------------------------|
A-5---4/5---4-----4/5-----5\4-----2---1/2---1-----1/2-----2\1-----|
E-3-0-2/3-0-2-0-0-2/3-0-0-3\2-0-0-3-0-2/3-0-2-0-0-2/3-0-0-3\2-0-0-|
* * * * * * * * * * * * * * * *
e-------------------------------------------------|
B-------------------------------------------------|
G-------------------------------------------------|
D-------------------------------------------------|
A-5---4/5---4-----4/5-----5\4-----4--5-6-7-----2--|
E-3-0-2/3-0-2-0-0-2/3-0-0-3\2-0-0-2--------0-0-0--|
* * * * * * * * * *

bill1

Submitted by bill1 at Fri 09 Apr, 2004 7:45 am

Author: Dave Mustaine
Composer: Dave Mustaine
Publisher: Universal Music Enterprises
Published in: 2007
Language: English

Reactions

1 post

CommonCrawl [Bot]
whiplash
Mon 26 Sep, 2005 5:08 am
Bill you smart arse...hahaha... good work, im working on playing the classical solo... Looks like you're the only one good or game enough to submit this entire song.... hahaha. Nice.
1 post • Page 1 of 1

Follow Muzikum