Slayer

Slayer
Ddamm (Guitar tab)

DDAMM


slayer


TRANSCRIBED BY RUDY GUZMAN


guzman_84@hotmail.com



----------------
eb:----------/-----------------------------------------------------------------------------|
Bb:-10b-----/------------------------------------------------------------------------------|
Gb:-----9bf/--999999999999999--9ah--9ahb--------------9p7-9p7--11p9-11p9--14p12--16p14-16b-|
Db:----------------------------------------------------------------------------------------|
Ab:----------------------------------------------------------------------------------------|
Eb:------------------------------------------/7--/10---------------------------------------|

repeat
eb:------------------20p17-20p17-20p17-20p17-20p17-20p17--20--17\----------|--14tp12p11p9-|
Bb:-----------------------------------------------------------------10b/17-|--------------|
Gb:-/18\12-(12)/20---------------------------------------------------------|--------------|
Db:------------------------------------------------------------------------|--------------|
Ab:------------------------------------------------------------------------|--------------|
Eb:------------------------------------------------------------------------|--------------|

pick slide
:---0----0----7nh-----------------------------------------------------------------------|
:-0-----------------x\-----------------5/15\--------------------------------------------|
:-------------------x\----------5/9\5----------7b-7b-7b-7b-7ahb-7ah---5/12--7/14--10/17-|
:---------------------------------------------------------------------------------------|
:---------------------------------------------------------------------------------------|
:---------------------------------------------------------------------------------------|

pick slide
:-----------------7nh--------------------------|
:------------------------7nh--------x\---------|
:-12/20--14/24----------------------x\---------|
:----------------------------------------------|
:----------------------------------------------|
:----------------------------------------------|

OptimusPrime

Submitted by OptimusPrime at Thu 14 Aug, 2003 6:22 pm

Author: Jeff Hanneman
Composer: ?
Publisher: American Recordings, LLC
Published in: 2012
Language: English

Reactions

CommonCrawl [Bot]

Follow Muzikum