Slayer

Slayer
Seven Faces (Guitar tab)

From: "Armando Hoyos"
Subject: s/slayer/seven_faces.tab
Date: Sun, 20 Jan 2002 06:52:36

SLAYER

Album: God hates us all

Song: seven faces (solo)

tabbed by Rudy Guzman


guzman_84@hotmail.com

solo
wah bar
Eb|------------------------------------------------------------4-5-4-5-7-5-4|
Bb|17b-17b-17b-------------17b--17b-----------------------------------------|
F#|17b-17b-17b--15~~~--0---17b--17b---0h12p0h12p0h12p0--14b~~---------------|
C#|-------------------------------------------------------------------------|
G#|-------------------------------------------------------------------------|
C#|-------------------------------------------------------------------------|


bar
Eb|----7-8-7-8-10-8-7-------------------------------------------------------|
Bb|7/9----------------10-8-7-------0h7p0h7p0h7p0h7p0h7p0h7p0h7p0--7/12--12AH|
F#|---------------------------0---------------------------------------------|
C#|-------------------------------------------------------------------------|
G#|-------------------------------------------------------------------------|
C#|-------------------------------------------------------------------------|


bend slowly bar
Eb|-------------------|
Bb|12b----------------|
F#|----------------0--|
C#|-------------------|
G#|-------------------|
C#|-------------------|


intro
Eb|--------------------------------|
Bb|--------------------------------|
F#|-----0------------0-------------|
C#|--------0------------0----------|
G#|-----------6------------6--5----|
C#|--0------------0----------------|

OptimusPrime

Submitted by OptimusPrime at Mon 01 Apr, 2002 1:39 pm

Author: ?
Composer: ?
Publisher: American Recordings, LLC
Published in: 2010
Language: English
Available on: God Hates Us All (2001)

Reactions

CommonCrawl [Bot]

Follow Muzikum