Fear Factory

Fear Factory
W (Guitar tab)

Band: Fear Factory
Album: Soul Of A New Machine
Song: W.O.E.

I tabbed this for a seven string down
one step but I think it's played in
standard. If you want to play this
in standard, just move everything
down two frets.
Any comments, email me at twiggyramirez39@Hotmail.com
Tuning: ADGCFAD

Intro:
1_______2________
D|-|-------------------|-|-------|------------------
A|-|-------------------|-|-------|------------------
F|-|-------------------|-|-------|------------------
C|0|-------------------|0|-------|------------------
G|0|-------------------|0|-------|------------------
D|-|-------------------|-|-------|-5-6-4------------
A|-|2-2-2--4-5-3--2-2-2|-|-3-4-2-|-3-4-2------------

Verse:

D|--------------------------------------------------
A|--------------------------------------------------
F|--------------------------------------------------
C|--------------------------------------------------
G|--------------------------------------------------
D|--4-4-4--6-7-5--4-4-4--5-6-4----------------------
A|--2-2-2--4-5-3--2-2-2--3-4-2----------------------

Next bit:

D|--------------------------------------------------
A|--------------------------------------------------
F|--------------------------------------------------
C|--------------------------------------------------
G|--------------------------------------------------
D|--4-4-4--5-4-5-4----------------------------------
A|--2-2-2--3-2-3-2----------------------------------
PM_____|

then:

D|--------------------------------------------------
A|--------------------------------------------------
F|--------------------------------------------------
C|--------------------------------------------------
G|--------------------------------------------------
D|--6/4--4-4--6/4--4-4--6/4--4-4--5/4--5/4----------
A|--4/2--2-2--4/2--2-2--4/2--2-2--3/2--3/2----------
PM__| PM__| PM__|

then:

D|--------------------------------------------------
A|--------------------------------------------------
F|--------------------------------------------------
C|--------------------------------------------------
G|--------------------------------------------------
D|--4-4-4--8--4-4-4--7--4-4-4--6--4-4-4--5-4-5-4----
A|--2-2-2--6--2-2-2--5--2-2-2--4--2-2-2--3-2-3-2----
PM___| PM___| PM___| PM____________|

then:

D|--------------------------------------------------
A|--------------------------------------------------
F|--------------------------------------------------
C|--------------------------------------------------
G|-------------------8------------------------------
D|--4-4-5-4-4-5--8-6-6------------------------------
A|--2-2-3-2-2-3--6-4--------------------------------
PM_____________|

Last bit:

D|--------------------------------------------------
A|--------------------------------------------------
F|--------------------------------------------------
C|--------------------------------------------------
G|--------------------------------------------------
D|--5/4-4-------------------------------------------
A|--3/2-2-------------------------------------------

OptimusPrime

Submitted by OptimusPrime at Thu 14 Aug, 2003 4:47 pm

Author: ?
Composer: ?
Publisher: ?
Language: English

Reactions

CommonCrawl [Bot]

Follow Muzikum