Tiffany
Open My Eyes (Guitar tab)

�Open My Eyes� as recorded by Tiffany from the CD �The Color Of Silence� �2000
Transcribed by Charles W. Bridgen 1/21/03 email me at cwb71@ptd.net or chuckb28@yahoo.com

-------------------------------|--------------------------------|---------------------------------|-------------------------------
-------------------------------|--------------------------------|---------------------------------|-------------------------------
-------------------0-----------|-------------------0-----------|---------------------0-----------|--------------------0---------
------------2------------2----|------------2-------------2----|-------------2-------------2----|-------------2------------2---
-----0-------------------------|----0--------------------------|-----3---------------------------|-----3------------------------
-------------------------------|--------------------------------|---------------------------------|-------------------------------

(standard E tuning)

--------------------------------|--------------------------------|--------------------------------|-------------------------------
--------------------------------|--------------------------------|------------------1-------------|------------------1-----------
-----------4------5-----4------|-----------4------5-----4-----|------------0-----------0------|------------0-----------0-----
-----5--------------------------|-----5-------------------------|-----3--------------------------|-----3------------------------
--------------------------------|--------------------------------|--------------------------------|-------------------------------
--------------------------------|--------------------------------|--------------------------------|-------------------------------

(intro repeat 3 times)

------3-------------------------|--------------------------------|-----3-------------------------|-------------------------------
------0-------------------------|--------------------------------|-----0-------------------------|-------------------------------
------0-------------------------|--------------------------------|-----0-------------------------|-------------------------------
------0-------------------------|-----3-------------------------|-----0--------------------------|-----3------------------------
------1-------------------------|-----3-------------------------|-----1--------------------------|-----3------------------------
------3-------------------------|-----1-------------------------|-----3--------------------------|-----1------------------------
(G) (E#) (G) (E#)
(bridge strummed with second guitar playing the second half of the intro in the background) Somebody

--------------------------------|--------------------------------|-----0-----0-------------------|------3-----3-----------------
--------------------------------|--------------------------------|-----1-----1-------------------|------0-----0-----------------
-----2-----2-------------------|--------------------------------|-----0-----0-------------------|------0-----0-----------------
-----2-----2-------------------|-----3-----3-------------------|-----2-----2-------------------|------0-----0-----------------
-----0-----0-------------------|-----3-----3-------------------|-----3-----3-------------------|------1-----1-----------------
--------------------------------|-----1-----1-------------------|---------------------------------|------3-----3----------------
(A) (E#) (C) (G)
(Chorus) Open My eyes For a little while little while
(repeat 4 times)
------2-------------------------|--------------------------------|--------------------------------|-------------------------------
------3-------------------------|--------------------------------|--------------------------------|-------------------------------
------2-------------------------|--------------------------------|--------------------------------|-------------------------------
------0-------------------------|-----3-------------------------|--------------------------------|-------------------------------
------0-------------------------|-----3-------------------------|--------------------------------|-------------------------------
--------------------------------|-----1--------------------------|--------------------------------|-------------------------------
(D) (E#)
Stand and stare until I go blind Will you open my eyes (back to intro)


The rest of the song should be pretty self explanatory. The chorus part is played over the lead, then back to the bridge, then back to the chorus, repeating until the intro starts again then fades out.

Visit the official Tiffany website at http://www.TiffanyMusic.com

Copyrights
Author: ?
Composer: ?
Publisher: ?
More details
Language: English

Reactions

CommonCrawl [Bot]

Follow Muzikum