A Global Threat

A Global Threat
American Culture (Guitar tab)

Band: A Global Threat
Song: American Culture
Album: What The *** Will Change?
Tabbed By Johnny Jce86@aol.com

Intro/Chorus
e--------------------------------------------------------
B--------------------------------------------------------
G---------------------10-11-11----------------8-9-9------
D-11-11--11-11-11-11--10-11-11---9-9--9-9-9-9-8-9-9------
A-11-11--11-11-11-11--8--9--9----9-9--9-9-9-9-6-7-7------
E-9--9---9--9--9--9--------------7-7--7-7-7-7------------

End of Chorus
e---------------------
B---------------------
G---------------------
D--11---9----7----6---
A--11---9----7----6---
E--9----7----5----4---


Verse 1
e-----------------------------
B-----------------------------
G---------6-6--6--------7-4---
D--4-4--4-6-6--6-7-7--7-7-4---
A--4-4--4-4-4--4-7-7--7-5-2---
E--2-2--2--------5-5--5-------

Verse 2
e----------------------------
B----------------------------
G---------4-4--4--------6-4--
D--2-2--2-4-4--4-7-7--7-6-4--
A--2-2--2-2-2--2-7-7--7-4-2--
E--0-0--0--------5-5--5------


Intro X2
Chorus X2 w/end of chorus
Verse 1 X4
Verse 2 X4
Chorus X4 w/end of chorus
Verse 1 X4
Verse 2 X4
Chorus with no guitar X2
Chorus X2 w/end of chorus

OptimusPrime

Submitted by OptimusPrime at Thu 14 Aug, 2003 3:42 pm

Author: ?
Composer: ?
Publisher: ?
Language: English

Reactions

CommonCrawl [Bot]

Follow Muzikum