A Global Threat

A Global Threat
Filthy Greedy Guilty (Guitar tab)

-------------------------------------------------------------------------------
FILTHY GREEDY GUILTY - A Global Threat
-------------------------------------------------------------------------------

By: neurotixrob@hotmail.com

INTRO:
-play 4 times...
e|-4--6--7-----7--6-----7--6-----6--4--
B|----------5--------7--------4--------
G|-------------------------------------
D|-------------------------------------
A|-------------------------------------
E|-------------------------------------

-...then play 8 times
e|-------------------------------------
B|-------------------------------------
G|-1--3--4-----4--3-----4--3-----3--1--
D|----------2--------4--------1--------
A|-------------------------------------
E|-------------------------------------

VERSE:
e|------------------------------------------------------------------
B|------------------------------------------------------------------
G|-9-9--9-9--8-----------------------------11-11-11-11-11-11-11-11--
D|-9-9--9-9--8--6-6--6-6--8--9-9--9-9--11--11-11-11-11-11-11-11-11--
A|-7-7--7-7--6--6-6--6-6--8--9-9--9-9--11--9--9--9--9--9--9--9--9---
E|--------------4-4--4-4--6--7-7--7-7--9----------------------------

CHORUS:
e|----------------------------
B|----------------------------
G|----------9--9-9------------
D|--9--9-9--9--9-9--6-4--6-4--
A|--9--9-9--7--7-7--6-4--6-4--
E|--7--7-7----------4-2--4-2--

BRIDGE:
e|-------------
B|-------------
G|----2-----4--
D|-6--2--4--4--
A|-6--0--4--2--
E|-4-----2-----

-------------------------------------------------------------------------------

OptimusPrime

Submitted by OptimusPrime at Mon 04 Feb, 2002 9:47 pm

Author: ?
Composer: ?
Publisher: ?
Language: English

Reactions

CommonCrawl [Bot]

Follow Muzikum