Free

Free
Free Me Ver 2 (Guitar tab)

Fig1
e--------------------------------------------------------------------------------
b--------------------------------------------------------------------------------
g--------------------------------------------------------------------------------
d-----------------------------------2------------------------------------2------
a--------------------------------2------------------------------------2---------
E--3----2----0-0----0-0----------------3----2----0-0----0-0--------------- *repeats lots

e--------------------------------------------------------------------------------
b--------------------------------------------------------------------------------
g-------------------------------------------------------------------------------
d-----------------------------------2-------------------------------------------
a--------------------------------2----------------------------------------------
E--3----2----0-0----0-0----------------3----5-----2-2-0--------------------

I�ve got a bit of the solo. play soft and loud


e---------------------------------------------------------------------------------------------
b--------------------------------------------------15b17-------15b17-----15b17-17-17-
g---14b16-----14b16-----14b16-16-16--------------------------------------------------
d---------------------------------------------------------------------------------------------
a---------------------------------------------------------------------------------------------
E---------------------------------------------------------------------------------------------

go back to Fig1 repeat for a bit, start improvising using the 12fret fig2


Fig2
e-----12--------------------15----------------------
b-----12--------------------15----------------------
g-----12------------14------------------------------
d-----12------------14------------------------------
a-----12------------14------------------------------
e-----12--------------------15----------------------



that�s all I got the solo is a bit micky mouse but shit who cares
if it sounds good play.
if you can help me to get it right E-mail me
jesusthepope@yahoo.com

OptimusPrime

Submitted by OptimusPrime at Sun 01 Dec, 2002 9:51 am

Author: ?
Composer: ?
Publisher: ?
Language: English

Reactions

CommonCrawl [Bot]

Follow Muzikum